Cifra Club

In Paris

Limon Juice

Tab de baixo: Principal
[Verso]

G|-------12-12/----------------------------------------------------|
D|-14-------------------------------------------4------------------|
A|----14--------7-7---7------------5-5--5-----2----2-0-2-----------|
E|------------------------5-5--5-----------------------------------|

[Refrão]

G|-----------------------------------------------------------------|
D|-------------5--------5------------------------------------------|
A|---------7-7---7--7-7---7------4--------4------------------------|
E|-5-5-7-7-------------------5-5---5--5-5---5----------------------|

G|-----------------------------------------------------------------|
D|-----4--------4---------------------5-7-9-7----------------------|
A|-5-5---5--5-5---5------2--------2--------------------------------|
E|-------------------3-3---3--3-3---3------------------------------|
Composição de Arthur Figueira / João Vicente Kosciuszko Gonçalves
Colaboração e revisão:
  • Joao Vicente
  • Matheus Avencourt
25 exibições

0 comentários

Ver todos os comentários

Conseguiu tocar?

2 Tocaram 0 Ainda não

Grave um vídeo tocando In Paris e nos envie!

00:00 / 00:00
Outros vídeos desta música
Repetir Qualidade Automático
Outros vídeos desta música
00:00 / 00:00
Automático

Cifra Club Pro

Aproveite o Cifra Club com benefícios exclusivos e sem anúncios
Cifra Club Pro
Aproveite o Cifra Club com benefícios exclusivos e sem anúncios
OK