Cifra Club

Labios de seda

Los Piojos

Cifra: Versão 2 (violão e guitarra)
tom: Am
 2
E|----------------------------------------------------------------------x2|
B|----------------------------------------------------------------------|
G|----------------------------------------------------------------------|
D|--7--7-5---5--7---4-4-x-234--3-3-xx-5-3--2h3p2h3p2*-532---------------|
A|---------7------------------------------------------------532---------|
E|----------------------------------------------------------------5-3-5-|

con la armónica:
E|----------------------------------------------------------------------x2|
B|----------------------------------------------------------------------|
G|----------------------------------------------------------------------|
D|--7--7-5---5--7---4-4-x-234--3-3-xx-5-3--2h3p2h3p2*| etc---------------
A|---------7------------------------------------------------------------|
E|----------------------------------------------------------------------|


Am7 
Tus labios de seda
       D7 (9)
son la luz de mi condena,
F7               Em7 
nena te quiero besar.

No puedo evitarlo
tengo que encontrarlos
nena te salgo a buscar.
Tus labios de seda,
en lo bajo se me enredan
y empañan los vidrios de mi corazón.
Pintados de rojo
son el fuego que recojo,
y que a mi mente hacen volar.


Repite intro (con la armónica)


Tus labios de seda
son la luz de mi condena,
nena te quiero besar.
Quiebra la cintura
en la calle tu figura
nena te quiero probar.


Am 
Dame te digo nena
D7 (9)
dame te digo nena
F7 
dame te digo nena
Em7 
dameló...             (2 veces)


F# 
Cuando veo el perfume en tus ojos
F# 
y mi boca te besa la piel
lA                         lA      F 
melodías derramas sobre mi sien.
F#
Y la abeja se ahoga en la miel
F#
y el motor suena diferente
lA                        lA        F 
melodías derramas sobre mi sien.


Repite intro con armonica


Am
Camino solo
Dsus2          Fmaj7               E
no tengo ganas de llegar al poste del 53
Am                Dsus2
barrio de Flores, si tus colores
  Fmaj7                         E
pudieran darle a mi boca una sonrisa otra vez.


Dame te digo nena.......


Cuando veo mi boca en tu piel
y me llevo tu risa en la mente
y amanece ah ah ah...

LD7                      re7(9)
Tus labios de seda no quiero perderlos jamás,
F7                            Em7 
tus labios de seda no quiero perderlos jamás x3

Am7
00:00 / 00:00
Outros vídeos desta música
Repetir
Outros vídeos desta música
Composição de Ciro, Los Piojos
    • ½ Tom
    • Am
    • Bbm
    • Bm
    • Cm
    • C#m
    • Dm
    • Ebm
    • Em
    • Fm
    • F#m
    • Gm
    • G#m
  • Adicionar à lista

    0 comentários

    Ver todos os comentários

    Entre para oCifra Club PRO

    Tenha acesso a benefícios exclusivos no App e no Site

    • Chega de anúncios

    • Prioridade de compra em lançamentos

    • Mais recursos no app do Afinador

    • Atendimento Prioritário

    • Descontos nos produtos Cifra Club

    • Ajude a produzir mais conteúdo

    00:00 / 00:00

    Cifra Club Pro

    Aproveite o Cifra Club com benefícios exclusivos e sem anúncios
    Cifra Club Pro
    Aproveite o Cifra Club com benefícios exclusivos e sem anúncios
    OK