Cifra Club

Torre de babel

Los Tres

Cifra: Versão 2 (violão e guitarra)
tom: C
            A7    ( 5 | 7 | 5 | 6 | 5 | 5 )
                  ( 5 | X | 5 | 6 | X | X )
                  ( X | 12| 11| 12| 10| X )
                  ( X | 0 | 2 | 0 | 2 | X )
                  ( X | 12| 14| 12| 14| X )

            G7    ( 3 | 5 | 3 | 4 | 3 | 3 )
                  ( 3 | X | 3 | 4 | X | X )
                  ( X | 10| 9 | 10| 8 | X )
                  ( 3 | 5 | 3 | 0 | X | X )
                  ( X | 10| 12| 10| 12| X )



(Nota: la notacion La y Sol Fue cambiada por A7  y G7)
aun faltan correcciones en los riffs y unos acordes mas k lleva
la cancion posteriormente seran agregados)

*************************************************************

Hey Hey!!!! Asiq buskndo por este temazo...
Gonza...Salu2

Intro:
El rasgueo de la guitarra de Alvaro Henriquez es como complicado
Pero escuxandolo bn lo sakran, durante toda la kncion son los mismos
akordes (A7-G7)

Primera Guitarra:

E|-------9-7--------9-7---------10/9/10/9/10/9/10/9-7-9----|
B|---------------------------------------------------------| X4
G|--4h9-------4h9---------4h7------------------------------|

Segunda Guitarra:

Rasguea A7-G7

Primera Guitarra
Riff 1
E|--10------h8------h10---------|
B|--10------h8------h10---------|
G|--11------h9------h11---------| X2
D|--12------h10-----h12---------|

Segunda Guitarra (puede hacer)
Importante apañar las otras cuerdas:

E|------------------------------| X
B|------------------------------| X
G|--4h6------h4------h6---------| O
D|--5h7------h5------h7---------| O
A|------------------------------| X
E|------------------------------| X
Riff 2:

Primera Guitarra Solamente(con un redoble de uñeta)

E|----------------0------------------------------|
B|----------2-1-2---2-1-2------------------------|
G|--------0-------------------5-4-----7-6--------| X2
D|-0-3-4-------------------3-------5-------------|


Nota si un amigo con una tercera guitarra anda por ahí
podría hacer esto en las estrofas(casi como un bajo):

E|-------------------------|
B|---7---7---5---5---5-6-7-|
G|-----7---7---5---7-------|


Luego A7s estrofas:
A7                      G7
En A7 torre de babel vivían 50 cigarros
A7                   G7
Vivian amontonados hechos todos de papel
Riff 2
A7                   G7
Uno a uno alineados, todos muy bien formados
A7                         G7
el mas pequeño era aquel y se llamaba Gabriel

Intro...
A7                      G7
Tabaco fino algodones, iban a ver el río
A7                       G7
Iban cantando canciones, muertos de frío
Riff 2
A7                      G7
la pasión de Gabriel era nadar en el rió
A7                           G7
Le contó de esto a su tío que era un cigarro de miel


Guitarra 1:
Riff 3
E|---------------------5-----4-----------|
B|---------------------4-----5-----------| X2
G|-2-4-5-7-5h7-4-5-4---5-----4-----------|

E|---------------------------------------|
B|--6---6--5---5--4---4--3---3---3-5-----|
G|----5------4------3------5---5---------|

Guitarra 2:
Riff 3
E|-------------3-0-2-0-------------------|
B|--0-3---3-2----------3-2-0-------------| X2
G|------1--------------------------------|

E|--3---3--2---2--1---1--0---0---0-2-----|
B|----3------2------1------3---3---------|
G|---------------------------------------|

Intro...

A7                        G7            A7
Su tio que era muy viejo no le puso reparos
A7                       G7                 A7
y cuando llego el habano forrado entero de cafe
Riff 2
A7                         G7                  A7
Donde se metio Gabriel pregunto inquieto el habano
A7                          G7           A7
Se fue con otros cigarros a ver el rio correr
Riff2
A7                     G7               A7
No lo puedo creer!!! eres muy mal ciudadano
A7                                   G7          A7
Pues tu sobrino y hermano tal vez nunca pueda volver

Riff 3 luego un D7 y E7
Punteo...
E|--9-9---7------------------------------------------------|
B|-8-8-8-6-6--6/4---4--------------------------------------|
G|----------------6----------------------6/4---------------|
D|---------------------r5-r5-r5-r5-r5-r5-----r5-r3-r3-r3---|
A|---------------------------------------------------------|
E|---------------------------------------------------------|

E|----------------------------------------------------|
B|----------------------------------------------------|
G|-------------------------8-6-8---6-8-10---6/20------|
D|-----------------5-7-5-7---------5-7-9----5/19------|
A|-----------4-6-4-----------------6-8-10---6/20------|
E|---3-5-3-5------------------------------------------|
Riff 1(este lo hace la segunda guitarra en esta ocasión)

A7                      G7
Cuando llego el habano a A7 orilla del rió
A7                       G7
Vio un pequeño cigarro muerto, abierto y tendido
Riff 2
A7                   G7
Estaba todo mojado sin señales de vida
A7                          G7
El tabaco se desprendía quedaba desparramado
Riff2
A7                            G7
Tristeza, llantos, lamentos reinaran desde hoy en babel
A7                         G7
Se nos ha muerto Gabriel todo ha quedado en silencio

Riff 3
Solamente un buen fuego puede dar muerte a un cigarro
Pero si muere mojado es igual
que si a un hombre lo mataran colgado....(Intro)Colgado...
00:00 / 00:00
Outros vídeos desta música
Repetir
Outros vídeos desta música
Composição de Los tres
    • ½ Tom
    • A
    • Bb
    • B
    • C
    • Db
    • D
    • Eb
    • E
    • F
    • F#
    • G
    • Ab
  • Adicionar à lista

    0 comentários

    Ver todos os comentários

    Conseguiu tocar?

    0 Tocaram 0 Ainda não

    Grave um vídeo tocando Torre de babel e nos envie!

    00:00 / 00:00

    Cifra Club Pro

    Aproveite o Cifra Club com benefícios exclusivos e sem anúncios
    Cifra Club Pro
    Aproveite o Cifra Club com benefícios exclusivos e sem anúncios
    OK