Cifra Club

Anything Anything Ill Give You

Lucky Boys Confusion

Cifra: Principal (violão e guitarra)
Selo Cifra Club: esta cifra foi revisada para atender aos critérios oficiais da nossa Equipe de Qualidade.
tom: G
G1

E|-----0-x---3-3-x-3-3-3-3------------0---3-3---------------------x-x-x-x-x-x--|
B|-----0-x---3-3-x-5-5-5-5---7-8-7----0---3-3---5-5-5-5-5-5-5-5-7-x-x-x-x-x-x--|
G|---1-1-x-4-4-4-x-5-5-5-5---7-7-7--1-1---4-4---5-5-5-5-5-5-5-5-7-x-x-x-x-x-x--|
D|-2-2-2-x-5-5-5-x-5-5-5-5---7-7-7--2-2---5-5---5-5-5-5-5-5-5-5-7-x-x-x-x-x-x--|
A|-2-2-2-x-5-5-5-x-3-3-3-3-5-5-5-5--2-2---5-5---3-3-3-3-3-3-3-3-5-x-x-x-x-x-x--|
E|-0-0-0-x-3-3-3-x------------------0-0-x-3-3-x-------------------x-x-x-x-x-x--|

E|-0-0---3-3---3-3---5-5----0-0---3-3--3-3-------------------------------------|
B|-0-0---3-3---5-5---7-7----0-0---3-3--5-5---7-7-7-7-7-7\----------------------|
G|-1-1---4-4---5-5---7-7----1-1---4-4--5-5---7-7-7-7-7-7\----------------------|
D|-2-2---5-5---5-5---7-7----2-2---5-5--5-5---7-7-7-7-7-7\----------------------|
A|-2-2---5-5---3-3-3-5-5----2-2---5-5--3-3-x-5-5-5-5-5-5\----------------------|
E|-0-0-0-3-3-x------------0-0-0-x-3-3-x----------------------------------------|

G2

E|-----------------------------------------------------------------------------|
B|-----------------------------------------------------------------------------|
G|-----------------------------------------------------------------------------|
D|-----------------------------------------------------------------------------|
A|-----------------------------------------------------------------------------|
E|-----------------------------------------------------------------------------|

E|-----------------------------------------------------------------------------|
B|-8--7--8--7--8--7--8/10---8--7--8--7--8--7--8/10-----------------------------|
G|-----------------------------------------------------------------------------|
D|-----------------------------------------------------------------------------|
A|-----------------------------------------------------------------------------|
E|-----------------------------------------------------------------------------|


[Verse 1]

No guitar until

E|---------------------------------------------------------------------------|
B|---------------------------------------------------------------------------|
G|---------------------------------------------------------------------------|
D|---------------------------------------------------------------------------|
A|---------------------------------------------------------------------------|
E|---------------------------------------------------------------------------|

"just settle down, settle down"

E|----0---0---0--0-0-0-0-0---------------------------------------------------|
B|----------3---/5-5-5-5-5---------------------------------------------------|
G|------4--------------------------------------------------------------------|
D|---------------------------------------------------------------------------|
A|---------------------------------------------------------------------------|
E|---------------------------------------------------------------------------|


[Chorus]

"I'll give you candy..." 

E|-0---0---3---3------------------0---0---3---3------------------x-x-x-x----------------------------------|
B|-0---0---3---3---5-5-5---7-7-7--0---0---3---3---5-5-5---7-7-7--x-x-x-x----------------------------------|
G|-1-1-1---4-4-4---5-5-5---7-7-7--1-1-1---4-4-4---5-5-5---7-7-7--x-x-x-x----------------------------------|
D|-2-2-2---5-5-5---5-5-5---7-7-7--2-2-2---5-5-5---5-5-5---7-7-7--x-x-x-x----------------------------------|
A|-2-2-2---5-5-5---3-3-3-x-5-5-5--2-2-2---5-5-5---3-3-3-x-5-5-5--x-x-x-x----------------------------------|
E|-0-0-0-x-3-3-3-x----------------0-0-0-x-3-3-3-x----------------x-x-x-x----------------------------------|

E|-0---0---3---3------------------0-0-0---3---3-----------------------x-x-x-x-----------------------------|
B|-0---0---3---3---5-5-5---7-7-7--0-0-0---3---3---5-5-5--7-7-7-7-7-7--x-x-x-x--\7-------------------------|
G|-1-1-1---4-4-4---5-5-5---7-7-7--1-1-1---4-4-4---5-5-5--7-7-7-7-7-7--x-x-x-x--\7-------------------------|
D|-2-2-2---5-5-5---5-5-5---7-7-7--2-2-2---5-5-5---5-5-5--7-7-7-7-7-7--x-x-x-x-----------------------------|
A|-2-2-2---5-5-5---3-3-3-x-5-5-5--2-2-2---5-5-5---3-3-3--5-5-5-5-5-5--x-x-x-x-----------------------------|
E|-0-0-0-x-3-3-3-x----------------0-0-0-x-3-3-3-x---------------------x-x-x-x-----------------------------|


[Verse 2]

No Guitar until 

E|---------------------------------------------------------------------------|
B|---------------------------------------------------------------------------|
G|---------------------------------------------------------------------------|
D|---------------------------------------------------------------------------|
A|---------------------------------------------------------------------------|
E|---------------------------------------------------------------------------|

"Just settle down, settle down"

E|-0---0---0--0-0-0-0-0------------------------------------------------------|
B|-------3---/5-5-5-5-5------------------------------------------------------|
G|---4-----------------------------------------------------------------------|
D|---------------------------------------------------------------------------|
A|---------------------------------------------------------------------------|
E|---------------------------------------------------------------------------|


[Chorus 2]

E|-0---0---3---3------------------0---0---3---3------------------x-x-x-x----------------------------------|
B|-0---0---3---3---5-5-5---7-7-7--0---0---3---3---5-5-5---7-7-7--x-x-x-x----------------------------------|
G|-1-1-1---4-4-4---5-5-5---7-7-7--1-1-1---4-4-4---5-5-5---7-7-7--x-x-x-x----------------------------------|
D|-2-2-2---5-5-5---5-5-5---7-7-7--2-2-2---5-5-5---5-5-5---7-7-7--x-x-x-x----------------------------------|
A|-2-2-2---5-5-5---3-3-3-x-5-5-5--2-2-2---5-5-5---3-3-3-x-5-5-5--x-x-x-x----------------------------------|
E|-0-0-0-x-3-3-3-x----------------0-0-0-x-3-3-3-x----------------x-x-x-x----------------------------------|

E|-0---0---3---3------------------0-0-0---3---3-----------------------x-x-x-x-----------------------------|
B|-0---0---3---3---5-5-5---7-7-7--0-0-0---3---3---5-5-5--7-7-7-7-7-7--x-x-x-x--\7-------------------------|
G|-1-1-1---4-4-4---5-5-5---7-7-7--1-1-1---4-4-4---5-5-5--7-7-7-7-7-7--x-x-x-x--\7-------------------------|
D|-2-2-2---5-5-5---5-5-5---7-7-7--2-2-2---5-5-5---5-5-5--7-7-7-7-7-7--x-x-x-x-----------------------------|
A|-2-2-2---5-5-5---3-3-3-x-5-5-5--2-2-2---5-5-5---3-3-3--5-5-5-5-5-5--x-x-x-x-----------------------------|
E|-0-0-0-x-3-3-3-x----------------0-0-0-x-3-3-3-x---------------------x-x-x-x-----------------------------|


[Solo]

G1
                                                        
E|-----------------------------------12----------------------------------------------|
B|---8--7--8--7--8--7-8-/10-------12----15b--15br-p12--------------------------------|
G|----------------------------14b----------------------14b-14b16-16r14p12| -----------|
D|------------------------------------------------------------------------14---------|
A|-----------------------------------------------------------------------------------|
E|-----------------------------------------------------------------------------------|

E|-----------------------------------------------------------------------------------|
B|-----------------------------------------------------------------------------------|
G|----0-2b3r2p0| -------------0----------0-2br3-2b3r2p0-------------------------------|
D|--2-----------2--------0-2---2-0-2--2----------------2-----------------------------|
A|-------------------0-2-------------------------------------------------------------|
E|-----------------3-----------------------------------------------------------------|
  
Overdub

E|-----------------------------------------------------------------------------------|
B|-----------------------------------------------------------------------------------|
G|-----------------------------------------------------------------------------------|
D|-----------------------------------------------------------------------------------|
A|-----------------------------------------------------------------------------------|
E|-----------------------------------------------------------------------------------|
                                                  
E|-----------------------------------------------------------------------------------|
B|-----------------------------------------------------12v--\------------------------|
G|-----------------------------------------------------12v--\------------------------|
D|-----------------------------------------------------------------------------------|
A|-----------------------------------------------------------------------------------|
E|-----------------------------------------------------------------------------------|

[Verse 3]

Just bass until 

"I got wasted, she got mad  called me names and she called her dad"

E|------------------------------------------------------------------------|
B|--------------5-5-5-7-7-7-------------5-5-5-7-7-------------------------|
G|--1-1-1-4-4-4-5-5-5-7-7-7-1-1-1-4-4-4-5-5-5-7-7-------------------------|
D|--2-2-2-5-5-5-5-5-5-7-7-7-2-2-2-5-5-5-5-5-5-7-7-------------------------|
A|--2-2-2-5-5-5-3-3-3-5-5-5-2-2-2-5-5-5-3-3-3-5-5-------------------------|
E|--0-0-0-3-3-3-------------0-0-0-3-3-3-----------------------------------|

"He got crazy and I did too   wonder what I did to you"

E|-----------------------------------------------------x-x-x-x------------|
B|--------------5-5-5-7-7-7----------------------------x-x-x-x------------|
G|--1-1-1-4-4-4-5-5-5-7-7-7----------------5-5-5-5-5-7-x-x-x-x------------|
D|--2-2-2-5-5-5-5-5-5-7-7-7---2-----5------5-5-5-5-5-7-x-x-x-x------------|
A|--2-2-2-5-5-5-3-3-3-5-5-5---2-----5------3-3-3-3-3-5-x-x-x-x------------|
E|--0-0-0-3-3-3---------------0-----3------------------x-x-x-x------------|



[Chorus]

G1

E|---------------------------------------------------------------------------|
B|-------------5-5---7-7--------------5-5---7-7-x-x-x-x----------------------|
G|-1-1---4-4---5-5---7-7--1-1---4-4---5-5---7-7-x-x-x-x----------------------|
D|-2-2---5-5---5-5---7-7--2-2---5-5---5-5---7-7-x-x-x-x----------------------|
A|-2-2---5-5---3-3-3-5-5--2-2---5-5---3-3-3-5-5-x-x-x-x----------------------|
E|-0-0-0-3-3-3------------0-0-0-3-3-3----------------------------------------|

E|---------------------------------------------------------------------------|
B|-------------5-5---7-7--------------5-5---7-7------------------------------|
G|-1-1---4-4---5-5---7-7--1-1---4-4---5-5---7-7------------------------------|
D|-2-2---5-5---5-5---7-7--2-2---5-5---5-5---7-7------------------------------|
A|-2-2---5-5---3-3-3-5-5--2-2---5-5---3-3-3-5-5------------------------------|
E|-0-0-0-3-3-3------------0-0-0-3-3-3----------------------------------------|

G2

E|---------------------------------------------------------------------------|
B|---------------------------------------------------------------------------|
G|---------------------------------------------------------------------------|
D|---------------------------------------------------------------------------|
A|---------------------------------------------------------------------------|
E|---------------------------------------------------------------------------|

E|---------------------------------------------------------------------------|
B|------------------------8--7--8--7--8--7--8-/-10---------------------------|
G|---------------------------------------------------------------------------|
D|---------------------------------------------------------------------------|
A|---------------------------------------------------------------------------|
E|---------------------------------------------------------------------------|


[Outro]

G1

E|-----------------------------------------------------------------------------|
B|--------------5-5---7-7-----------------5------7-----------------------------|
G|--1-1---4-4---5-5---7-7---1------4------5------7-----------------------------|
D|--2-2---5-5---5-5---7-7---2------5------5------7--------2--------9-9\--------|
A|--2-2---5-5---3-3-3-5-5---2------5------3------5--------2--------7-7\--------|
E|--0-0-0-3-3-3-------------0------3----------------------0--------------------|

G2
(Notes are tremolo picked here)
E|-----------------------------------------------------------------------------|
B|--8--7--8--7--8--7--8-/10--8--7--8--7--8--7--8--/10--------------------------|
G|-----------------------------------------------------------------------------|
D|-----------------------------------------------------------------------------|
A|-----------------------------------------------------------------------------|
E|-----------------------------------------------------------------------------|



************************************

| x   Dead note
| \   Slide down
| /   Slide up
| p   Pull-off
| b   Bend
| br  Bend release
| r   Release
 
Outros vídeos desta música
    0 exibições
      • ½ Tom
      • A
      • Bb
      • B
      • C
      • Db
      • D
      • Eb
      • E
      • F
      • F#
      • G
      • Ab
    • Adicionar à lista

    Afinação da cifra

    Afinador online

      0 comentários

      Ver todos os comentários

      Conseguiu tocar?

      0Tocaram0Ainda não

      Grave um vídeo tocando Anything Anything Ill Give You e nos envie!

      Toque também

      1. Imagem do artista Fenix TXAll My Fault Fenix TX
      2. Imagem do artista AllisterSomewhere On Fullerton Allister
      3. Imagem do artista MestCadillac Mest
      4. Imagem do artista Eve 6Think Twice Eve 6

      Entre para o Cifra Club PRO

      Tenha acesso a benefícios exclusivos no App e no Site

      • Chega de anúncios

      • Badges exclusivas

      • Mais recursos no app do Afinador

      • Atendimento Prioritário

      • Aumente seu limite de lista

      • Ajude a produzir mais conteúdo

      Cifra Club Pro

      Aproveite o Cifra Club com benefícios exclusivos e sem anúncios
      Cifra Club Pro
      Aproveite o Cifra Club com benefícios exclusivos e sem anúncios
      Ops (: Contenido disponible sólo en portugués.
      OK