Cifra Club

Beware

Lucky Boys Confusion

Cifra: Principal (violão e guitarra)
Selo Cifra Club: esta cifra foi revisada para atender aos critérios oficiais da nossa Equipe de Qualidade.
tom: D
Intro: 4x (Strummed 4 times)  After:
E|-----------------------------------------------------------------------------|
B|-----------------------------------------------------------------------------|
G|-----------------------------------------------------------------------------|
D|----------7------------------------7-----------------------------------------|
A|----------5--5--7--9---------------5~~~--------------------------------------|
E|--3/12\3-----3--5--7---------------------------------------------------------|

Verse:
E|-----------------------------------------------------------------------------|
B|-----------------------------------------------------------------------------|
G|-----------------------------------------------------------------------------|
D|-7-7-7-----------------------------------------------------------------------|
A|-5-5-5--5-5-5--7-7-7--9-9-9--------------------------------------------------|
E|--------3-3-3--5-5-5--7-7-7--------------------------------------------------|
PM - -    - -    - -    - -

Fill:
E|-----------------------------------------------------------------------------|
B|-----------------------------------------------------------------------------|
G|-----------------------------------------------------------------------------|
D|-----------------------------------------------------------------------------|
A|--5--------------------------------------------------------------------------|
E|-----7-5\3-------------------------------------------------------------------|

Pre-Chorus: (Strummed 4 times)
E|-----------------------------------------------------------------------------|
B|-----------------------------------------------------------------------------|
G|-----------------------------------------------------------------------------|
D|-----------------------9-----------------------------------------------------|
A|--5--2--5--2--5--2--5--7-----------------------------------------------------|
E|--3--0--3--0--3--0--3--------------------------------------------------------|


Chorus: 4x (Strummed 4 times)  After:
E|-----------------------------------------------------------------------------|
B|-----------------------------------------------------------------------------|
G|-----------------------------------------------------------------------------|
D|-7---------------------------------7\----------------------------------------|
A|-5--5--7--9------------------------5\----------------------------------------|
E|----3--5--7------------------------------------------------------------------|
Pre-Bridge x8
E|-----------------------------------------------------------------------------|
B|-----------------------------------------------------------------------------|
G|-----------------------------------------------------------------------------|
D|--5--------------------------------------------------------------------------|
A|--x--------------------------------------------------------------------------|
E|--3--------------------------------------------------------------------------|
Bridge:
Guitar 1 x4
E|-----------------------------------------------------------------------------|
B|-----------------------------------------------------------------------------|
G|-----------------------------------------------------------------------------|
D|--7--------------------------------------------------------------------------|
A|--5--5x5---------------------------------------------------------------------|
E|-----3x3---------------------------------------------------------------------|

Guitar 2 (Solo)
E|------------|--------------|-----------|--------|----------------------------|
B|------------|--------------|-----------|--------|----------------------------|
G|--7--11-14--|--11-14--11-7-|--14--6--7-|--9--12-|----------------------------|
D|--x--x--x---|--x--x---x--x-|--x---x--x-|--x--x--|----------------------------|
A|--5--9--12--|--9--12--9--5-|--12--4--5-|--7--10-|----------------------------|
E|------------|--------------|-----------|--------|----------------------------|

Structure:

Intro
Verse
Pre-Chorus
Chorus
Verse
Pre-Chorus
Chorus
Pre-Bridge
Bridge/Solo
Bass Breakdown
Chorus

Lyrics:

Cut the engine when I'm all revved up
Pull the rug beneath my feet
Pull the trigger when I'm all wound up
Then you turn your back on me
Then you say that I'm talking too much
but I'm just talking to my self
And whether you like it or not you'll never ask for help

Chorus
Breathing for you
Can't be all in my head
Changing scares you
This is all in your head
Beware I swear I will be waiting there (2x)

Draw the battlelines and back me down
to the corner with such ease
Turn the knife til I'm so worked up
all I do is aim to please
The power balance is now upside down
with a sudden change of gears
Every single word is now washed up
with your crocodile tears

Chorus

GO!

The setting sun crumbles in the distance
Feeble words meeting new resistance
Tired games, do they make a difference
Tired games, tired games
Outros vídeos desta música
    0 exibições
      • ½ Tom
      • A
      • Bb
      • B
      • C
      • Db
      • D
      • Eb
      • E
      • F
      • F#
      • G
      • Ab
    • Adicionar à lista

    Afinação da cifra

    Afinador online

      0 comentários

      Ver todos os comentários

      Conseguiu tocar?

      0Tocaram0Ainda não

      Grave um vídeo tocando Beware e nos envie!

      Toque também

      1. Imagem do artista Fenix TXAll My Fault Fenix TX
      2. Imagem do artista AllisterSomewhere On Fullerton Allister
      3. Imagem do artista MestCadillac Mest
      4. Imagem do artista Eve 6Think Twice Eve 6

      Entre para o Cifra Club PRO

      Tenha acesso a benefícios exclusivos no App e no Site

      • Chega de anúncios

      • Badges exclusivas

      • Mais recursos no app do Afinador

      • Atendimento Prioritário

      • Aumente seu limite de lista

      • Ajude a produzir mais conteúdo

      Cifra Club Pro

      Aproveite o Cifra Club com benefícios exclusivos e sem anúncios
      Cifra Club Pro
      Aproveite o Cifra Club com benefícios exclusivos e sem anúncios
      Ops (: Contenido disponible sólo en portugués.
      OK