Cifra Club

Mi Verdad

Maná

Cifra (violão e guitarra)
Selo Cifra Club: esta cifra foi revisada para atender aos critérios oficiais da nossa Equipe de Qualidade.
tom: Em
E|--------------------------|-------------------------------------------------|
B|--------------------------|-------------------------------------------------|
G|------0--2--4(p)0--2(h)4--|-----0--2--4(p)0--0(h)2--2(p)0-------------------|
D|----0---------------------|---0----------------------------4----------------|
A|--------------------------|-------------------------------------------------|
E|--------------------------|-------------------------------------------------|

[Verse]

G   Am              Bm
Hay mentiras en los labios 
     C             D     
Hay mentiras en la piel, que dolor 
G   Am              Bm
Hay mentiras, hay amantes 
         C           D
Que por instantes de placer 
B7
Ponen su vida a temblar 

Em    C        D
Hay mentiras compasivas 
       C          G
Hay mentiras por piedad 
         B7             Em  
Que no quieren lastimar 
(Em)                 C             D
Hay mentiras que nos hieren de verdad 
(D)
Ay, ay, ay 

C                     D
 Hay engaños que por años 
(D)               G
Ocultaron la verdad 
(G)
Haciendo mucho daño 
   C                  D
Ay, yo me voy a refugiar 
              Em
A la tierra de tu amor (mi verdad) 


[Chorus]

Am                       D
Tú eres mi amor, mi alegría
                   G
La verdad de mi vida 
                 Em                    Am
Mi bebe que me salta a los brazos de prisa 
               D             G   Em
Tú eres mi refugio y mi verdad 

Am                       D
Tú eres mi amor, mi alegría 
                   G
La verdad de mi vida 
                 Em                 Am
Mi bebe que me calma el alma con risas 
               Cm              (G)
Tú eres mi refugio y mi verdad 


[Verse]

G     Am              Bm 
 Hay mentira en la mirada 
       C            D
Hay mentiras en la piel, dibujadas 
G    Am               Bm
Hay mentiras, hay amantes 
        C                 D
Que por instantes de placer 
B7                   (Em)
Ponen su vida a temblar 

Em    C               D
Hay doctrinas y oradores 
  C                   G
Dictadores sin piedad 
         B7
Que gobiernan sin verdad 
Em                           C
   Y hay mentiras en los diarios, en las redes 
    D
Y en el bar, ay ay ay 

C                    D
  Hay engaños que por años 
                 G
Ocultaron la verdad 
(G)
Hiriendo de dolor 
  C                   D
Ay, yo me voy a refugiar 
              Em
Al oasis de tu amor 


[Chorus]

Am                    D
Tú eres mi amor, mi alegría 
                   G
La verdad de mi vida 
                 Em                    Am
Mi bebe que me salta a los brazos de prisa 
               D          G      Em
Tú eres mi refugio y mi verdad 

Am                       D
Tú eres mi amor, mi alegría 
                   G
La verdad de mi vida 
                 Em                 Am
Mi bebe que me calma el alma con risas 
               Cm            G Cm D
Tú eres mi refugio y mi verdad 


[Solo]

G# A#m Cm C# D#

 (This is the solo not relative to the capo, actual fret values)
E|-10-10-10--8-8-6-6-----10-10-11-10-8-6-5--------------------------------------|
B|-11-11-11--9-9-8-8-----11-11-11-11-9-8-6-----10-11-8-10-6-6-8-8---------------|
G|---------------------------------------------10-10-8-8| -7-7-7-7---------------|
D|------------------------------------------------------------------------------|
A|------------------------------------------------------------------------------|
E|------------------------------------------------------------------------------|

 (This is the solo relative to the capo, as in the capo on the second fret) 
E|-8-8-8--6-6-4-4-----8-8-9-8-6-4-3---------------------------------------------|
B|-9-9-9--7-7-6-6-----9-9-9-9-7-6-4------------8-9-6-8-4-4-6-6------------------|
G|---------------------------------------------8-8-6-6-5-5-5-5------------------|
D|------------------------------------------------------------------------------|
A|------------------------------------------------------------------------------|
E|------------------------------------------------------------------------------|

(Right here you can put the capo on the 3rd fret and take off the sharp for all chords, 
and substitute Fm for Em.)


[Outro]

C#                 D#
En un mundo tan irreal 
     G#
No sé qué creer 
C#                          D#               Fm
Y amor sé que tú eres mi verdad, eres mi verdad 

            A#m            D#
Tú eres la luz que me guía 
            G#           Fm
Tú eres la voz que me calma 
            A#m            D#
Tú eres la lluvia de mi alma 
                  G#  Fm
Y eres toda mi verdad 
            A#m            D#
Tú eres la luz que me guía 
            G#           Fm
Tú eres la voz que me calma 
            A#m            C#m
Tú eres la lluvia de mi alma
                   G#
Y eres toda mi verdad 
C#m      D#       G#
    Eres toda mi verdad
Outros vídeos desta música
    166 exibições
      • ½ Tom
      • Am
      • Bbm
      • Bm
      • Cm
      • C#m
      • Dm
      • Ebm
      • Em
      • Fm
      • F#m
      • Gm
      • G#m
    • Adicionar à lista

    Afinação da cifra

    Afinador online

      0 comentários

      Ver todos os comentários

      Entre para o Cifra Club PRO

      Tenha acesso a benefícios exclusivos no App e no Site

      • Chega de anúncios

      • Badges exclusivas

      • Mais recursos no app do Afinador

      • Atendimento Prioritário

      • Aumente seu limite de lista

      • Ajude a produzir mais conteúdo

      Cifra Club Pro

      Aproveite o Cifra Club com benefícios exclusivos e sem anúncios
      Cifra Club Pro
      Aproveite o Cifra Club com benefícios exclusivos e sem anúncios
      Ops (: Contenido disponible sólo en portugués.
      OK