Cifra Club

Kings Of Metal

Manowar

Cifra: Principal (violão e guitarra)
tom: D
Riff1:
-----

G  E|-------3--2--------- |
U  B|-------3--3--------- |
I  G|-------0--2--------- |
T  D|-2-----0--0--------- |
A  A|-2------------------ |
R  E|-0------------------ |

1

G  E|-------------------- |
U  B|-------------------- |
I  G|-------------------- |
T  D|-9-----12-7--------- |
A  A|-7-----10-5--------- |
R  E|-0------------------ |
2



Riff2:

G  E|--------------------3--2--------------- |
U  B|--------------------3--3--------------- |
I  G|--------------------0--2--------------- |
T  D|-2-----2------------0--0--2------------ |
A  A|-2-----2--5--5 / 7--------2------------ |
R  E|-0-----0--3--3 / 5--------0------------ |

1


G  E|--------------------------------------- |
U  B|--------------------------------------- |
I  G|--------------------------------------- |
T  D|-9-----9--12-12/ 14-14-7--9------------ |
A  A|-7-----7--10-10/ 12-12-5--7------------ |
R  E|-0------------------------------------- |

2



Riff3:

G  E|------------------------------------------------- |
U  B|------------------------------------------------- |
I  G|-2--------8p7--------8p7--------8p7--2----------- |
T  D|-2--------7----------7----------7----2----------- |
A  A|-0--0000-------0000-------0000-------0----------- |
R  E|------------------------------------------------- |

1        PM-|       PM-|       PM-|


G  E|------------------------------------------------- |
U  B|------------------------------------------------- |
I  G|-9-----------------------------------2----------- |
T  D|-7-----------------------------------2----------- |
A  A|-0-----------------------------------0----------- |
R  E|------------------------------------------------- |

2                                          


Riff4:

E|---------------------------------------------- |
B|---------------------------------------------- |
G|---------------------------------------------- |
D|--9--------12---------14--------9------------- |
A|--7--------10---------12--------7------------- |
E|---------------------------------------------- |




Riff5:

E|---------------------------------------------- |
B|---------------------------------------------- |
G|---------------------------------------------- |
D|--2--------7--------2--------7---------------- |
A|--2--------7--------2--------7---------------- |
E|--0--------5--------0--------5---------------- |




Lyrics:

[Riff 1]

Manowar Manowar Living On the Road

[Riff 2]

When We're In Town Speakers Explode

[Riff 2]

We Don't Attract Wimps 'Cause We're Too Loud

[Riff 3]

Just True Metal People That's Manowar's Croud

[Riff 2]


w/ [Riff 4] (2x)

They Wanna Keep Us Down

But They Can't Last

When We Get Up We 're Gonna Kick Your Ass

Gonna Keep On Burnin'

We Always Will

Other Bands Play Manowar Kill

Other Bands Play Manowar Kill



w/ [same as above]


We Like It Hard, We Like It Fast

We Got The Biggest Amp, Man They Blast

True Metal People Wanna Rock Not Pose

Wearin' Jeans And Leather,Not Cracker Jack Clothes


They Wanna Keep Us Down

But They Can't Last

When We Get Up When 

We 're Gonna Kick Your Ass

Gonna Keep On Burnin'

We Always Will

Other Bands Play Manowar Kill

Other Bands Play Manowar Kill


[Solo] w/ [Riff 5]


We're The Kings Of Metal Comin' To Town

When We Light Up, Have The Roof Nailed Down

Don't Try To Tell Us That We're Too Loud

'Cause There Ain't No Way That We Ever Turn Down


They Wanna Keep Us Down

But They Can't Last

When We Get Up When We 're Gonna Kick Your Ass

Gonna Keep On Burnin'

We Always Will

Other Bands Play Manowar Kill


w/ [Riff 5]


We're The Kings Of Metal Kick Your Ass

Comin' To Town Manowar Kills





                          Death To False Metal !


Manowar: Kings of Metal (solo)

Tabbed by HeXa


Standard Tuning

                                          Bend Tremolo down

|------5-5------5-5------5--8-8-8-5-5-5--------------------------------------|
|------5-5------5-5------5--5-5-5-5-5-5--12h15p12h15p12h15...----------------|
|-7(9)-----7(9)-----7(9)-----------------------------------------------------|
|----------------------------------------------------------------------------|
|----------------------------------------------------------------------------|
|----------------------------------------------------------------------------|

                                N.H                     A.H

|----12-14-15-14-12----------------------------------------------------------|
|-15----------------15-13-12------------------------0-0------0-0-0-0-0-0-----|
|----------------------------14----------------2(4)-----2(4)-----------------|
|-------------------------------15-(use|-trem)--------------------------------|
|----------------------------------------------------------------------------|
|----------------------------------------------------------------------------|

|----------------------------------------------------------------12-14-15----|
|-------------------------------------------------------12-13-15-------------|
|-2(4)-2(4)-2(4)p0-----------------------------11-12-14----------------------|
|------------------2------------------10-12-14-------------------------------|
|----------------------------10-12-14----------------------------------------|
|----------------------12-14-------------------------------------------------|

|-12h15p12h15p12h15(Bend-trem-down)-12p15h12---------------------------------|
|---------------------------------------------5----5----6-----6-----7--------|
|---------------------------------------------7(9)-7(9)-8(10)-8(10)-9(11)----|
|----------------------------------------------------------------------------|
|----------------------------------------------------------------------------|
|----------------------------------------------------------------------------|

|----------------------------------------------------------------------------|
|-7-----8------8------9------9------10-----10-----11-----11-----12-----12----|
|-9(11)-10(12)-10(12)-11(13)-11(13)-12(14)-12(14)-13(15)-13(15)-14(16)-14(16)|
|----------------------------------------------------------------------------|
|----------------------------------------------------------------------------|
|----------------------------------------------------------------------------|

|----------------------------------------------------------------------------|
|-13-----13-----14-----14-----15-----15-----16-----16-----17-----17----------|
|-15(17)-15(17)-16(18)-16(18)-17(19)-17(19)-18(20)-18(20)-19(21)-19(21)------|
|----------------------------------------------------------------------------|
|----------------------------------------------------------------------------|
|----------------------------------------------------------------------------|
Composição de Ross the Boss
Colaboração e revisão:
  • alexandre
6.672 exibições
    • ½ Tom
    • A
    • Bb
    • B
    • C
    • Db
    • D
    • Eb
    • E
    • F
    • F#
    • G
    • Ab
  • Adicionar à lista

    0 comentários

    Ver todos os comentários

    Conseguiu tocar?

    0 Tocaram 0 Ainda não

    Grave um vídeo tocando Kings Of Metal e nos envie!

    00:00 / 00:00
    Outros vídeos desta música
    Repetir Qualidade Automático
    Outros vídeos desta música
    00:00 / 00:00
    Automático

    Cifra Club Pro

    Aproveite o Cifra Club com benefícios exclusivos e sem anúncios
    Cifra Club Pro
    Aproveite o Cifra Club com benefícios exclusivos e sem anúncios
    OK