Cifra Club

Aprenda

Mario and Luigi: Partners in Time - Title Screen

Mario Bros

Cifra: Principal (violão e guitarra)
tom: D
E A D G B E

|----------|----------|------------------------------------8-13---|
|----------|----------|-10---10---11-11-------------11-10-10-13---|
|----------|----------|-10---10---12-12---12---12---12-10---------|
|----------|----------|-------------------14---14-----------------|
|----------|----------|-------------------------------------------|
|----------|----------|-------------------------------------------|

|-------------------------------------------|
|-------------------------------------------|
|-14---14---15-15-------------15-14---------|
|-15---15---17-17---17---17---17-15---------|
|-------------------19---19-----------15-12-|
|-------------------------------------17-13-|

|-------------------------------------------|
|-------------------------------------------|
|-------------------------------------------|
|-------------------------------------------|
|-------------------------------------------|
|-------------------------------------------|

|-------------------------------------8-13---|
|-10---10----10-10----8----8----8-10-10-13---|
|-10---10----10-10----9----9----9-10---------|
|--------------------------------------------|
|--------------------------------------------|
|--------------------------------------------|

|--------------------------------------------|
|-10-8-10-11-13------------------------------|
|-10-9-10-12-14-14---15---15-----------------|
|---------------15---17---17---17-19---------|
|------------------------------19-20----20---|
|---------------------------------------20---|

|----------------------------------------------|
|----------------------------------10----------|
|-14----14----14-14---12---12---12-10----------|
|-15----15----15-15---14---14---14-------10----|
|----------------------------------------12-12-|
|-------------------------------------------13-|

|----------------------------------------------|
|-------------------------------------18-------|
|-------------------------------------17-------|
|-19-17-19-20-22-19---20---20------19----------|
|-20-19-20-22-24-20---22---22---22-20----------|
|-------------------------------24-------------|

|--------------------------------------8-13---|
|-10----10----10-10----8----8----8-10-10-13---|
|-10----10----10-10----9----9----9-10---------|
|---------------------------------------------|
|---------------------------------------------|
|---------------------------------------------|

|---------------------------------------------|
|---------------------------------------------|
|---------------------------------------------|
|-19-17-19-20-22-19---20---20------19---------|
|-20-19-20-22-24-20---22---22---22-20----20---|
|-------------------------------24-------20---|

|----------------------------------------------|
|----------------------------------10----------|
|-14----14----14-14---12---12---12-10----------|
|-15----15----15-15---14---14---14-------10----|
|----------------------------------------12-12-|
|-------------------------------------------13-|

|----------------------------------------------|
|-------------------------------------18-------|
|-------------------------------------17-------|
|-19-17-19-20-22-19---20---20------19----------|
|-20-19-20-22-24-20---22---22---22-20----------|
|-------------------------------24-------------|

|------------------------------------------|
|------------------------------------------|
|------------------------------------------|
|------------------------------------------|
|------------------------------------------|
|------------------------------------------|

|------------------------------------------|
|-15---15---15-15---17---17---17-17---17---|
|-15---15---15-15---17---17---17-17---17---|
|------------------------------------------|
|------------------------------------------|
|------------------------------------------|

|--------------------------------------------|
|-15---15---15-17-18-17---17---17-17---18-17-|
|-15---15---15-17-19-17---17---17-17---19-17-|
|--------------------------------------------|
|--------------------------------------------|
|--------------------------------------------|

|------------------------------------------|
|-------------------15---15---15-15---15---|
|-17---17---17-17---15---15---15-15---15---|
|-19---19---19-19--------------------------|
|------------------------------------------|
|------------------------------------------|

|--------------------------------------------|
|-13---13---13-15-16-15---15---15-15---16-15-|
|-14---14---14-15-17-15---15---15-15---17-15-|
|--------------------------------------------|
|--------------------------------------------|
|--------------------------------------------|

|------------------------------------------|
|-15---15---15-15---17---17---17-17---17---|
|-15---15---15-15---17---17---17-17---17---|
|------------------------------------------|
|------------------------------------------|
|------------------------------------------|

|--------------------------------------------|
|-15---15---15-17-18-17---17---17-17---18-17-|
|-15---15---15-17-19-17---17---17-17---19-17-|
|--------------------------------------------|
|--------------------------------------------|
|--------------------------------------------|

|------------------------------------------|
|-17---17---17-17---18---18---18-18---18---|
|-17---17---17-17---19---19---19-19---19---|
|------------------------------------------|
|------------------------------------------|
|------------------------------------------|

|-------------------------------------------|
|-------------------------------------------|
|-------------------------------------------|
|-14-14---14---15-17------------------------|
|-15-15---15---17-19-19---19---19---20-22---|
|--------------------20---20---20---22-24---|

|-------------------------------------------|
|-17-17---17---18-20-------------------20---|
|-17-17---17---19-21-21---21---21---22-21---|
|--------------------22---22---22---24------|
|-------------------------------------------|
|-------------------------------------------|

|---------------------------------------------|
|----------------------------------------18---|
|-------------------------------------17-17---|
|-19----19----19-19---17---17---17-19-19------|
|-20----20----20-20---19---19---19-20---------|
|---------------------------------------------|

|---------------------------------------------|
|---------------------------------------------|
|---------------------------------------------|
|-19-17-19-20-22-19---20---20------19---------|
|-20-19-20-22-24-20---22---22---22-20----20---|
|-------------------------------24-------20---|

|--------------------------------------------|
|----------------------------------------1---|
|----------------------------------------2-2-|
|-19----19----19-19---17---17---17-19------3-|
|-20----20----20-20---19---19---19-20--------|
|--------------------------------------------|

|--------------------------------------------|
|-------------------------------------18-----|
|-------------------------------------17-----|
|-19-17-19-20-22-19---20---20------19--------|
|-20-19-20-22-24-20---22---22---22-20--------|
|-------------------------------24-----------|

|--5-----5-----5--5----3----3----3--5--8-13---|
|--6-----6-----6--6----5----5----5--6-10-13---|
|---------------------------------------------|
|---------------------------------------------|
|---------------------------------------------|
|---------------------------------------------|

|---------------------------------------------|
|---------------------------------------------|
|---------------------------------------------|
|-19-17-19-20-22-19---20---20------19---------|
|-20-19-20-22-24-20---22---22---22-20----20---|
|-------------------------------24-------20---|

|--------------------------------------------*|
|----------------------------------10--------*|
|-14----14----14-14---12---12---12-10--------*|
|-15----15----15-15---14---14---14------10---*|
|---------------------------------------12---*|
|--------------------------------------------*|

|--------------------------------------------*|
|---------------------------------------18---*|
|---------------------------------------17---*|
|-19-17-19-20-22-19---20---20------19--------*|
|-20-19-20-22-24-20---22---22---22-20--------*|
|-------------------------------24-----------*|
Compositor não encontrado.
2.251 exibições
    • ½ Tom
    • A
    • Bb
    • B
    • C
    • Db
    • D
    • Eb
    • E
    • F
    • F#
    • G
    • Ab
  • Adicionar à lista

    0 comentários

    Ver todos os comentários

    Conseguiu tocar?

    0 Tocaram 0 Ainda não

    Grave um vídeo tocando Mario and Luigi: Partners in Time - Title Screen e nos envie!

    00:00 / 00:00
    Outros vídeos desta música
    Repetir Qualidade Automático
    Outros vídeos desta música
    00:00 / 00:00
    Automático

    Cifra Club Pro

    Aproveite o Cifra Club com benefícios exclusivos e sem anúncios
    Cifra Club Pro
    Aproveite o Cifra Club com benefícios exclusivos e sem anúncios
    OK