Cifra Club

Aprenda

Mario and Luigi: Partners in Time - Boss Battle

Mario Bros

Cifra: Principal (violão e guitarra)
tom: C
|---------------------------------|-------------------------|
|-------------------------1-------|-------1-----------------|
|-0-------3---3-------3-------3-2-|-3-2-3---3---------------|
|-----5-----------5---------------|-----------5-6-5-3-(3)---|
|---3---3---3---3---3---3---3-----|-------------------------|
|---------------------------------|-------------------------|

|---------------------------------|-------------------------|
|-------------------------1-------|-------1-----------------|
|-0---0---3---3-------3-------3-2-|-3-2-3---3---------------|
|-----------------5---------------|-----------5-6-5-3-(3)---|
|---------------------------------|-------------------------|
|---------------------------------|-------------------------|

|---------------------------------|------------------------|
|---------------------------------|------------------------|
|---------1---1-------1---3---1-0-|-1-0-1-3-1--------------|
|-3---3-----------3---------------|-----------3-5----------|
|---1---1---1---1---1---1---1-----|---------------7-(7)----|
|---------------------------------|------------------------|

|---------------------------------|------------------------|
|---------------------------------|------------------------|
|---------1---1-------1---3---1-0-|-1-0-1-3-1--------------|
|-3---3-----------3---------------|-----------3-5----------|
|---------------------------------|---------------7-(7)----|
|---------------------------------|------------------------|

|-----------------------------------|-----------|
|-----------------------------------|-1---------|
|-------------------------------0-3-|-----------|
|-------------------------2---2-----|-----------|
|---7-9-11-13-12-13-----------------|-----------|
|----------------17-15-17-----------|-----------|

|------------------------------------|
|------------------------------------|
|------------------------------------|
|---2-4-6-8-7--8---------------8-----|
|-------------12-10-12------10---10--|
|----------------------12------------|

|------------|-------------------------------------|
|------------|-------------------------------------|
|------------|-------------------------------------|
|-10---------|-----------8---8--------8---10---8-7-|
|------------|-10---10-----------10----------------|
|------------|----8----8---8---8----8---8----8-----|

|------------|-------------------------------------|
|------------|-------------------------------------|
|------------|-------------------------------------|
|-10---------|-----------8---8--------8---10---8-7-|
|------------|-10---10-----------10----------------|
|------------|-------------------------------------|

|-----------------------------|
|-----------------------------|
|-----------------------------|
|-8-7-8-10-8------------------|
|------------10-11-10-8-(8)---|
|-----------------------------|

|-----------------------------|
|-----------------------------|
|-----------------------------|
|-8-7-8-10-8------------------|
|------------10-11-10-8-(8)---|
|-----------------------------|

|---------------------------------|---------------------------|
|---------------------------------|---------------------------|
|---------------------------------|---------------------------|
|---------6---6-------6---8---6-5-|-6-5-6-8-6-----------------|
|-8---8-----------8---------------|-----------8-10------------|
|---6---6---6---6---6---6---6-----|----------------12-(12)----|

|---------------------------------|---------------------------|
|---------------------------------|---------------------------|
|---------------------------------|---------------------------|
|---------6---6-------6---8---6-5-|-6-5-6-8-6-----------------|
|-8---8-----------8---------------|-----------8-10------------|
|---------------------------------|----------------12-(12)----|

|-------------------------------------|
|-------------------------------------|
|---------------------------------0-3-|
|---------------------------2---2-----|
|------------------13-----------------|
|---12-14-16-18-17-17-15-17-----------|

|-----------|------------------------------------|
|-1---------|------------------------------------|
|-----------|------------------------------------|
|-----------|---2-4-6-8-7--8---------------8-----|
|-----------|-------------12-10-12------10---10--|
|-----------|----------------------12------------|

|------------|----------------------------|--------------------------|
|------------|----------------------------|-------------2-2-2-1-1----|
|------------|----------------------------|-5-5-5-4-4-4--------------|
|-10---------|----------------7-7-7-5-5-5-|--------------------------|
|------------|-10-10-10-9-9-9-------------|--------------------------|
|------------|----------------------------|--------------------------|

|-------------------------------|------------|
|---------1-3-1-----------------|------------|
|-0-3-2-3-------3---------------|------------|
|---7-------------5-6-5-3-5-----|------------|
|---------------------------6---|------------|
|-----------------------------8-|-10---------|

|-----------------------------------------|------------*|
|-----------------------------------------|------------*|
|-----------------------------------------|------------*|
|-----8-7-8-10-12-10-8--------------------|------------*|
|-10-12----------------10-11-10-8-10------|------------*|
|------------------------------------11-8-|-10---------*|

Compositor não encontrado.
6.661 exibições
    • ½ Tom
    • A
    • Bb
    • B
    • C
    • Db
    • D
    • Eb
    • E
    • F
    • F#
    • G
    • Ab
  • Adicionar à lista

    0 comentários

    Ver todos os comentários

    Conseguiu tocar?

    0 Tocaram 0 Ainda não

    Grave um vídeo tocando Mario and Luigi: Partners in Time - Boss Battle e nos envie!

    00:00 / 00:00
    Outros vídeos desta música
    Repetir Qualidade Automático
    Outros vídeos desta música
    00:00 / 00:00
    Automático

    Cifra Club Pro

    Aproveite o Cifra Club com benefícios exclusivos e sem anúncios
    Cifra Club Pro
    Aproveite o Cifra Club com benefícios exclusivos e sem anúncios
    OK