Enviar cifraEntrar

Você Sempre Será

Marjorie Estiano

Cifra: Principal
exibições 449.428
Tom: D
(intro)


    E        Dsus2    G        Asus2
E|-0-3h0p0--0-3h0p0--0-3h0p0--0---|
B|-0--------3--------3--------0---|
G|-1--------2--------0--------2---|
D|-2--------0--------0--------2---|
A|-2--------x--------2--------0---|
E|-0--------x--------3--------x---|   (2x)


Bm              Dsus2           Em
Quando a lua tentar me encontrar
                G       Asus2
Diga a ela que eu me perdi
Bm                Dsus2         Em
Na neblina que cobre o mar
                G       Asus2
Mas me deixa te ver partir

E             B/D#
Um instante, um olhar
Dsus2         Asus2/C#
Vi o sol acordar
C9
Por detrás do seu sorriso
Asus2         B7
Me fazendo lembrar

(refrão)

    E     F#m*  G#m*  Asus2*
E|-0-----0-----0-----0---|
B|-0-----0-----0-----0---|
G|-1-----2-----4-----6---|
D|-2-----4-----6-----7---|
A|-2-----4-----6-----7---|
E|-0-----0-----0-----0---|


(refrão)
       E            A9
Que eu posso tentar te esquecer
      E           A9
Mas você sempre será
  E            F#m*
A onda que me arrasta
       G#m*         Asus2*
Que me leva pro teu mar

(intro 1x)

Bm               Dsus2        Em
Sinto a calma em volta de mim
                G        Asus2
O teu vento vem me perturbar
Bm            Dsus2           Em
Me envolve me leva daqui
            G       Asus2
Me afoga de novo no mar

E             B/D#
Um instante, um olhar
Dsus2         Asus2/C#
Vi o sol acordar
C9
 Por detrás do seu sorriso
Asus2          B7
 Me fazendo lembrar

(refrão 2x)

       E             A9
Que eu posso tentar te esquecer
      E          A9
Mas você sempre será
  E            F#m*
A onda que me arrasta
       G#m*         Asus2*
Que me leva pro teu mar
   E              F#m*
Me perco nos teus olhos
     G#m*         Asus2*
E mergulho sem pensar
          (intro 1x)
Se voltarei

E            F#m*
Posso tentar te esquecer
      G#m*        Asus2*
Mas você sempre será
  E            F#m*
A onda que me arrasta
       G#m*         Asus2*
Que me leva pro teu mar

(ponte)
(la la la)
E  G#  A  A#º

F#m*             G#m*     Asus2*     B
 Me envolve e me leva pra longe daqui...

(solo)

E|----------------------------------|
B|-----------10b12------------------|
G|----------9------12r11-9------9---|
D|--7/9--11-----------------11------|
A|----------------------------------|
E|----------------------------------|


E|-------------------------------------------|
B|---------10b12-------------12b14-14r12-10--|
G|------9---------13r11-9--------------------|
D|-9/11--------------------------------------| BASE DO SOLO ( E,A9,E,A9,E,F#m,G#m,A9)
A|-------------------------------------------|
E|-------------------------------------------|


E|---12-----14b16--14b16---16r14-12---15b17--|
B|-------------------------------------------|
G|-------------------------------------------|
D|-------------------------------------------|
A|-------------------------------------------|
E|-------------------------------------------|


Me  perco nos teus olhos

E|--12b14-14r12-----------------12b14------------17b19~~~~~~---|
B|---------------12----7/9--12--------10/12-14-----------------|
G|-------------------------------------------------------------|
D|-------------------------------------------------------------|
A|-------------------------------------------------------------|
E|-------------------------------------------------------------|


   E              F#m*
Me perco nos teus olhos
     G#m*         Asus2*
E mergulho sem pensar

(intro 2x)

Se voltarei
        E9
Se voltarei
  • 1
  • 2
  • 3
  • 4
  • 5
  • 6
  • 7
  • 8
  • 9
  • 10
  • 11
  • 12
    Acordes para:
      Composição: Mato Grosso (Mato Grosso e Matias)Colaboração e revisão:
      • KAUÊ MUNIZ
      • maverick

      0 comentários

        mostrar mais comentários

        Conseguiu tocar?

        30tocaram1ainda não

        Grave um vídeo tocando Você Sempre Será e mande pra gente!

        00:00 / 00:00
        outros vídeos desta música
        repetirqualidadeautomática
        • automática
        Outro vídeos desta música
          00:00 / 00:00
          automática
          • automática
          fecharplay/pause subir/descer velocidade
            acordes
            fechar
            OK
            Feedback