Notificações Amigos pendentes

      Marjorie Estiano

      Você Sempre Será

      440.373 exibições
      Tom: D
      (intro)
      
      
          E        Dsus2    G        Asus2
      E|-0-3h0p0--0-3h0p0--0-3h0p0--0---|
      B|-0--------3--------3--------0---|
      G|-1--------2--------0--------2---|
      D|-2--------0--------0--------2---|
      A|-2--------x--------2--------0---|
      E|-0--------x--------3--------x---|   (2x)
      
      
      Bm              Dsus2           Em
      Quando a lua tentar me encontrar
                      G       Asus2
      Diga a ela que eu me perdi
      Bm                Dsus2         Em
      Na neblina que cobre o mar
                      G       Asus2
      Mas me deixa te ver partir
      
      E             B/D#
      Um instante, um olhar
      Dsus2         Asus2/C#
      Vi o sol acordar
      C9
      Por detrás do seu sorriso
      Asus2         B7
      Me fazendo lembrar
      
      (refrão)
      
          E     F#m*  G#m*  Asus2*
      E|-0-----0-----0-----0---|
      B|-0-----0-----0-----0---|
      G|-1-----2-----4-----6---|
      D|-2-----4-----6-----7---|
      A|-2-----4-----6-----7---|
      E|-0-----0-----0-----0---|
      
      
      (refrão)
             E            A9
      Que eu posso tentar te esquecer
            E           A9
      Mas você sempre será
        E            F#m*
      A onda que me arrasta
             G#m*         Asus2*
      Que me leva pro teu mar
      
      (intro 1x)
      
      Bm               Dsus2        Em
      Sinto a calma em volta de mim
                      G        Asus2
      O teu vento vem me perturbar
      Bm            Dsus2           Em
      Me envolve me leva daqui
                  G       Asus2
      Me afoga de novo no mar
      
      E             B/D#
      Um instante, um olhar
      Dsus2         Asus2/C#
      Vi o sol acordar
      C9
       Por detrás do seu sorriso
      Asus2          B7
       Me fazendo lembrar
      
      (refrão 2x)
      
             E             A9
      Que eu posso tentar te esquecer
            E          A9
      Mas você sempre será
        E            F#m*
      A onda que me arrasta
             G#m*         Asus2*
      Que me leva pro teu mar
         E              F#m*
      Me perco nos teus olhos
           G#m*         Asus2*
      E mergulho sem pensar
                (intro 1x)
      Se voltarei
      
      E            F#m*
      Posso tentar te esquecer
            G#m*        Asus2*
      Mas você sempre será
        E            F#m*
      A onda que me arrasta
             G#m*         Asus2*
      Que me leva pro teu mar
      
      (ponte)
      (la la la)
      E  G#  A  A#º
      
      F#m*             G#m*     Asus2*     B
       Me envolve e me leva pra longe daqui...
      
      (solo)
      
      E|----------------------------------|
      B|-----------10b12------------------|
      G|----------9------12r11-9------9---|
      D|--7/9--11-----------------11------|
      A|----------------------------------|
      E|----------------------------------|
      
      
      E|-------------------------------------------|
      B|---------10b12-------------12b14-14r12-10--|
      G|------9---------13r11-9--------------------|
      D|-9/11--------------------------------------| BASE DO SOLO ( E,A9,E,A9,E,F#m,G#m,A9)
      A|-------------------------------------------|
      E|-------------------------------------------|
      
      
      E|---12-----14b16--14b16---16r14-12---15b17--|
      B|-------------------------------------------|
      G|-------------------------------------------|
      D|-------------------------------------------|
      A|-------------------------------------------|
      E|-------------------------------------------|
      
      
      Me  perco nos teus olhos
      
      E|--12b14-14r12-----------------12b14------------17b19~~~~~~---|
      B|---------------12----7/9--12--------10/12-14-----------------|
      G|-------------------------------------------------------------|
      D|-------------------------------------------------------------|
      A|-------------------------------------------------------------|
      E|-------------------------------------------------------------|
      
      
         E              F#m*
      Me perco nos teus olhos
           G#m*         Asus2*
      E mergulho sem pensar
      
      (intro 2x)
      
      Se voltarei
              E9
      Se voltarei
        Composição: Mato Grosso (Mato Grosso e Matias)Colaboração e revisão:
        • KAUÊ MUNIZ
        • maverick

        Comentários 7

        140 .
        • Palloma Palloma: Em 25/11/2013 22:18

          Porque esses asteriscos nos ultimos acordes???

          • ikira ikira: Em 20/01/2015 09:25

            Porque é pra eles serem tocados conforme ensinados anteriormente na cifra.

        • bruna.aq bruna.aq: Em 05/11/2013 17:18

          *.*

        • raffaloppes raffaloppes: Em 21/03/2013 17:11

          ritmo? ;z

          • Juliane Juliane: Em 22/12/2013 23:54

            qual quer um , depende da afinação

        • yulie yulie: Em 25/01/2013 02:04

          essa é do tempo que Malhação era boa.

        • kika kika: Em 10/04/2012 20:07

          lindaaaaa!
          ,as seria beem melhoor com a video aula!

        140 cancelar

        conseguiu tocar?

        • •••
        Thiago Pachêco357 visualizações
          ver covers de outras músicas »
          0:00 / 0:00

          Capítulos

            1 versão de partiturasformatodownloadscontribuição
            play/pausefechar subir/descer velocidade
            6ª corda E5ª corda A4ª corda D3ª corda G2ª corda B1ª corda E
              acordes
              publicidade
              fechar
              ok