Cifra Club

Você Sempre Será

Marjorie Estiano

Cifra: Principal (violão e guitarra)
tom: D
[Intro] 

   E        D2       G        A2
E|-0-3h0p0--0-3h0p0--0-3h0p0--0---|
B|-0--------3--------3--------0---|
G|-1--------2--------0--------2---|
D|-2--------0--------0--------2---|
A|-2--------x--------2--------0---|
E|-0--------x--------3--------x---| (2x)

Bm              D9           Em
Quando a lua tentar me encontrar
                G       A9
Diga a ela que eu me perdi
Bm                D9         Em
Na neblina que cobre o mar
                G       A9
Mas me deixa te ver partir

E             B/D#
Um instante, um olhar
D9         A9/C#
Vi o sol acordar
C9
Por detrás do seu sorriso
A9        B7
Me fazendo lembrar

[Refrão] 

       E            A9
Que eu posso tentar te esquecer
      E           A9
Mas você sempre será
  E            F#m11/E
A onda que me arrasta
       G#m5+/E         A9
Que me leva pro teu mar

Bm               D9        Em
Sinto a calma em volta de mim
                G        A9
O teu vento vem me perturbar
Bm            D9          Em
Me envolve me leva daqui
            G       A9
Me afoga de novo no mar

E             B/D#
Um instante, um olhar
D9         A9/C#
Vi o sol acordar
C9
 Por detrás do seu sorriso
A9         B7
 Me fazendo lembrar

[Refrão]

       E            A9
Que eu posso tentar te esquecer
      E           A9
Mas você sempre será
  E            F#m11/E
A onda que me arrasta
       G#m5+/E         A9
Que me leva pro teu mar
  E            F#m11/E
Me perco nos teus olhos
   G#m5+/E         A9
E mergulho sem pensar
          
Se voltarei

       E            A9
Que eu posso tentar te esquecer
      E           A9
Mas você sempre será
  E            F#m11/E
A onda que me arrasta
       G#m5+/E         A9
Que me leva pro teu mar

[Ponte] E  G#  A  A#º

F#m11/E        G#m5+/E      A9     B
 Me envolve e me leva pra longe daqui

[Solo] E A9 E A9 E F#m11/E G#m5+/E A9

E|------------------------------------------------------|
B|-----------10b12--------------------------------------|
G|----------9------12r11-9------9-----------------------|
D|--7/9--11-----------------11--------------------------|
A|------------------------------------------------------|
E|------------------------------------------------------|

E|------------------------------------------------------|
B|---------10b12-------------12b14-14r12-10-------------|
G|------9---------13r11-9-------------------------------|
D|-9/11-------------------------------------------------|
A|------------------------------------------------------|
E|------------------------------------------------------|

E|---12-----14b16--14b16---16r14-12---15b17-------------|
B|------------------------------------------------------|
G|------------------------------------------------------|
D|------------------------------------------------------|
A|------------------------------------------------------|
E|------------------------------------------------------|

Me  perco nos teus olhos
E|--12b14-14r12-----------------12b14------------17b19~-|
B|---------------12----7/9--12--------10/12-14----------|
G|------------------------------------------------------|
D|------------------------------------------------------|
A|------------------------------------------------------|
E|------------------------------------------------------|

  E            F#m11/E
Me perco nos teus olhos
   G#m5+/E         A9
E mergulho sem pensar

Se voltarei
        E9
Se voltarei
00:00 / 00:00
Outros vídeos desta música
Repetir
Outros vídeos desta música
Composição de Alexandre Castilho / Victor Pozas
Colaboração e revisão:
  • Kaue Muniz
  • andre franco
574.333 exibições
  • Simplificar cifra
    • ½ Tom
    • A
    • Bb
    • B
    • C
    • Db
    • D
    • Eb
    • E
    • F
    • F#
    • G
    • Ab
  • Adicionar à lista

    0 comentários

    Ver todos os comentários

    Entre para oCifra Club PRO

    Tenha acesso a benefícios exclusivos no App e no Site

    • Chega de anúncios

    • Prioridade de compra em lançamentos

    • Mais recursos no app do Afinador

    • Atendimento Prioritário

    • Descontos nos produtos Cifra Club

    • Ajude a produzir mais conteúdo

    00:00 / 00:00

    Cifra Club Pro

    Aproveite o Cifra Club com benefícios exclusivos e sem anúncios
    Cifra Club Pro
    Aproveite o Cifra Club com benefícios exclusivos e sem anúncios
    OK