Cifra Club

Você Sempre Será

Marjorie Estiano

Cifra: Versão 6 (violão e guitarra)
Selo Cifra Club: esta cifra foi revisada para atender aos critérios oficiais da nossa Equipe de Qualidade.
tom: D
H=hammer-on
p=Pull-of
/=slide
H.A.=HARMÔNICO NATURAL
~=VIBRATO
b=bend

(solo inicial)

E |-----------|
B |-----------|
G |----8------|  6x (na intro)
D |------9~---|
A |-----------|
E |-----------|

E |---------------------|
B |---------------------|
G |--9-9-9-7---7-7---9--|
D |----------9-----9----|
A |---------------------|
E |---------------------|
Quando a lua tentar me encontrar
sinto a calma em volta de mim

|-------------------|
|-------------------|
|--9-9-9-7--7-7-9-6-|
|----------9--------|
|-------------------|
|-------------------|
diga a ela k eu me perdi
o teu vento vem me pertubar

|-------------------
|-------------------
|---6-7-6--9-9-11-9-
|--9-----9----------
|-------------------
|-------------------
na neblina k cobre o mar
envolve e me leva daki

|-----------------------
|--11-11-11-9-7---7-9-6-
|-----------------------
|-----------------------
|-----------------------
|-----------------------
mas me deixa te ver partir,
me afoga de novo no mar

|-----------------
|----7-8----7H9p7-
|---7------7------
|--9------9-------
|-----------------
|-----------------
um instante, um olhar

|----------------------------------------------
|----------------------------------------------
|-12-12-12-11-9-7----7-9-11-7-9-9-7------------
|-------------------9--------9-----------------
|----------------------------------------------
|----------------------------------------------
vi o sol acordar,por detrás do teu sorriso

(refrão)
E |-------------------|----------------------------------------------------------------------------------|
B |-------------------|-----------10-8-7-7-------------10-8-7-----------10-7------10-7---------10-7------|
G |-12-12-12-12-14-11-|---------7---------7-7--------7---------7------7------7----------7-----------9-7-7|
D |-------------------|-------7------------9-------7---------9----------------9-----------9--------------|
A |-------------------|----------------------------------------------------------------------------------|
E |-------------------|----------------------------------------------------------------------------------|
Me fazendo lembrar    eu posso tentar te esquecer mas vc sempre será a onda k me arasta k me leva pro teu mar...
solo intro (3x)
REPETE TUDO.

NA 3ª VEZ depois do refrão  VEM PRA KÁ.

E |-------------------------------
B |---10-7------------------------
G |-7------7-7-9---7--11-9-7---7-
D |---------9-------9--------9----
A |-------------------------------
E |-------------------------------
me perco nos teus olhos e mergulho sem pensar

|---------------|
|--------7-9-7--|
|------9--------|
|----9----------|
|---------------|                  SOLO INTRO
|---------------|
  se voltarei.
|-----------------------
|-------10-8-7-7--------
|-----7---------7--7----
|---7-------------9-----
|---------------------
|-----------------------
eu posso tentar te eskecer

----------------------------------------------------|-----------------------------------------------------------------------------|
-----10-8-7----------10-7-------10-7-----10-7-------|-----------------------------------------------------------------------------|
---7----------7----7------7----------7--------9-7-7-|-7--7--7-7-7-9-9-9-11-11-11---7--7~-7~-7~|---7-9-11-11-11-7--7-9--12-14~-14~-|
--7---------9---------------9---------9-------------|--9-------------------------9------------------------------------------------|
----------------------------------------------------|-----------------------------------------------------------------------------|
----------------------------------------------------|-----------------------------------------------------------------------------|
+ vc sempre será a onda k me arasta k me leva pro teu mar are..aaae.aaae..hã ã.. ME ENVOLVE E ME LEVA pra longe daki...

Solo:
E |-------------------------------------------------------------10~--------12/14-14b--12------15/17----15b~--12~---------15/17~-15-------17/19~-------|
B |---------8/10~-8-7-------------8/10~---7----10/12~---------12-----------------------15-------------------------12--15---------------17----------------|
G |-----7-9--------------7----7----------------9----------------------------------------------------------|
D |-7/9----------------9----9-----------------------------------------------------------------------------|
A |-------------------------------------------------------------------------------------------------------|
E |-------------------------------------------------------------------------------------------------------|

me perco nos teus olhos e mergulho sem pensar se voltarei ...

(solo intro)

Se voltarei...     final:
E |--------|
B |-5H.N.-----|
G |--5H.N.----|
D |--------|
A |--------|
E |--------|
Outros vídeos desta música
    3.932 exibições
    • Simplificar cifra
      • ½ Tom
      • A
      • Bb
      • B
      • C
      • Db
      • D
      • Eb
      • E
      • F
      • F#
      • G
      • Ab
    • Adicionar à lista

    Afinação da cifra

    Afinador online

      0 comentários

      Ver todos os comentários

      Entre para o Cifra Club PRO

      Tenha acesso a benefícios exclusivos no App e no Site

      • Chega de anúncios

      • Badges exclusivas

      • Mais recursos no app do Afinador

      • Atendimento Prioritário

      • Aumente seu limite de lista

      • Ajude a produzir mais conteúdo

      Cifra Club Pro

      Aproveite o Cifra Club com benefícios exclusivos e sem anúncios
      Cifra Club Pro
      Aproveite o Cifra Club com benefícios exclusivos e sem anúncios
      OK