Cifra Club

Aprenda

Your So Yesterday

Marvelous 3

Cifra: Principal (violão e guitarra)
tom: G
   Album: New!!!!song!!!
   Transcribed by: Dustin Larrabee
   Email: *

   This i tabbed from a bootleg i got, its grea thogu, very easy song!

   ----------3-------2------3---3------------------------------------------------
   ----------3-------3------3---3------------------------------------------------
   ------------------2-----------------------------------------------------------
   -------------------------2---0------------------------------------------------
   ----------2--------------3----------------------------------------------------
   ----------3-------------------------------------------------------------------
   "Come and take a......" -verse, those are the 4 verse chords 

   ----------3------2------3-----------------------------------------------------
   ----------3------3------3-----------------------------------------------------
   -----------------2------------------------------------------------------------
   ------------------------2-----------------------------------------------------
   ----------2-------------3-----------------------------------------------------
   ----------3-------------------------------------------------------------------
   chorus "anymore anymoreeeee G D Cadd9 
Composição de Butch Walker
214 exibições
    • ½ Tom
    • A
    • Bb
    • B
    • C
    • Db
    • D
    • Eb
    • E
    • F
    • F#
    • G
    • Ab
  • Adicionar à lista

    0 comentários

    Ver todos os comentários

    Conseguiu tocar?

    0 Tocaram 0 Ainda não

    Grave um vídeo tocando Your So Yesterday e nos envie!

    00:00 / 00:00
    outros vídeos desta música
    repetir qualidade Automático
    Outros vídeos desta música
    00:00 / 00:00
    Automático

    Cifra Club Pro

    Aproveite o Cifra Club com benefícios exclusivos e sem anúncios
    Cifra Club Pro
    Aproveite o Cifra Club com benefícios exclusivos e sem anúncios
    OK