Cifra Club

Aprenda

Bullet

Misfits

Tab de baixo: Versão 3
G|-------------------------------|
D|-------------------55----------|
A|5555555555555555-33---55555555-|
E|-------------------------------|(x3)

G|------------------------------------------------------------------|
D|------------------------------------------------------------------|
A|5555555555555555-3333333333333333-11111111-3333333-5555555555555--|
E|------------------------------------------------------------------|

G|-------------------------------|
D|-------------------55----------|
A|5555555555555555-33---55555555-|
E|-------------------------------|(x2)

G|------------------------------------------------------------------|
D|------------------------------------------------------------------|
A|5555555555555555-3333333333333333-11111111-3333333-5555555555555--|
E|------------------------------------------------------------------|

G|-------------------------|
D|55555555-----------------|
A|---------55555555--------|
E|-------------------------|(x17)

G|-------------------------|
D|---55--------------------|
A|33----5555---------------|
E|-------------------------|(x2)

END
G|-------------------------|
D|---55--------------------|
A|33----5-5-5-5------------|
E|-------------------------|
Composição de Danzig / Glenn Danzig
36 exibições

0 comentários

Ver todos os comentários

Conseguiu tocar?

1 Tocaram 0 Ainda não

Grave um vídeo tocando Bullet e nos envie!

00:00 / 00:00
outros vídeos desta música
repetir qualidade Automático
Outros vídeos desta música
00:00 / 00:00
Automático

Cifra Club Pro

Aproveite o Cifra Club com benefícios exclusivos e sem anúncios
Cifra Club Pro
Aproveite o Cifra Club com benefícios exclusivos e sem anúncios
OK