Cifra Club

Aprenda

Dust To Dust

Misfits

Cifra: Principal (violão e guitarra)
tom: G
Turning order: Eb Ab Db Gb Bb Eb 

Riff A: play 11 times 
|-----------------------------| 
|-----------------------------| 
|--4--4-4---------------------| 
|--4--4-4--2--5--5-5-7-5-7-7--| 
|--2--2-2--2--5--5-5-7-5-7-7--| 
|----------0--3--3-3-5-3-5-5--| 
  

Riff B: play 1 time 
|-----------------| 
|-----------------| 
|--4-4-4----------| 
|--4-4-4--2--5----| 
|--2-2-2--2--5----| 
|---------0--3----| 

Riff C: play 4 times 
|----------------------------------------------------------------------| 
|----------------------------------------------------------------------| 
|-7-7-7-7-7-7-7-7--7-7-7-7-7-7-7-7-------------------------------------| 
|-7-7-7-7-7-7-7-7--7-7-7-7-7-7-7-7--5-5-5-5-5-5-5-5--2-2-2-2-2-2-2-2---| 
|-5-5-5-5-5-5-5-5--5-5-5-5-5-5-5-5--5-5-5-5-5-5-5-5--2-2-2-2-2-2-2-2---| 
|-----------------------------------3-3-3-3-3-3-3-3--0-0-0-0-0-0-0-0---| 

Riff D: play 1 time 
|-----------------| 
|-----------------| 
|-----------------| 
|-4-5-6-7---------| 
|-2-3-4-5---------| 
|-----------------| 

Riff A: 11 times 
Riff B: 1 time 
Riff C: 4 times 
Riff A: 3 times 
Riff B: 1 time 
Riff C: 4 times 
Riff A: 3 times 
Riff B: 1 time
Composição de Daniel Rey / Misfits
Colaboração e revisão:
  • Leandro Angelis
9.935 exibições
    • ½ Tom
    • A
    • Bb
    • B
    • C
    • Db
    • D
    • Eb
    • E
    • F
    • F#
    • G
    • Ab
  • Adicionar à lista

    0 comentários

    Ver todos os comentários

    Conseguiu tocar?

    3 Tocaram 1 Ainda não

    Grave um vídeo tocando Dust To Dust e nos envie!

    00:00 / 00:00
    outros vídeos desta música
    repetir qualidade Automático
    Outros vídeos desta música
    00:00 / 00:00
    Automático

    Cifra Club Pro

    Aproveite o Cifra Club com benefícios exclusivos e sem anúncios
    Cifra Club Pro
    Aproveite o Cifra Club com benefícios exclusivos e sem anúncios
    OK