Cifra Club

Aprenda

Dois Enganados (part. Marília Mendonça)

Murilo Huff

Cifra: Principal (violão e guitarra)
tom: C
[Intro] F  G  Am  G  F

E|------------------------------------------|
B|-----8-6----------------------------------|
G|-3/5-----7h9-10-7h9-5---------------------|
D|------------------------------------------|
A|------------------------------------------|
E|------------------------------------------|

E|------------------------------------------|
B|-----8-6-----------------8---8------------|
G|-3/5-----7h9-10-7h9-7--9---9---9----------|
D|------------------------------------------|
A|------------------------------------------|
E|------------------------------------------|

E|-----------5------------------------------|
B|-13-12-8-5--------------------------------|
G|------------------------------------------|
D|-14-12-9-5--------------------------------|
A|------------------------------------------|
E|------------------------------------------|

[Primeira Parte]

 C             
Tô ficando com alguém
          F
Que terminou faz pouco tempo
                  
E ainda guarda sentimento

C            
Olha eu aqui também
       F
Ainda to me remoendo
                    C             Dm   G
Por causa do meu antigo relacionamento

[Pré-Refrão]

 Dm
Dois enganados

Dando uma chance pro amor
     C
Eu quero voltar no passado
              G                     Dm  G
Ela sonha em ter de volta o que passou

[Refrão]

              F
E na hora da cama
              G
O corpo não aceita
               Am
A pele não esquenta

Nem beijar a gente beija

                  F
Respiro, fecho os olhos
                    G
E já que eu não esqueço
                  Am
Lembro de quem eu amo

E só assim eu compareço

  F    G
Uôô, uôô
                                   Am
E quem tá comigo, tá fazendo o mesmo

[Solo] F#  G#  A#m
       F#  G#  A#m  G#  F#

E|------------------------------------------|
B|-----9-7----------------------------------|
G|-4/6-----8h10-11-8h10-6-------------------|
D|------------------------------------------|
A|------------------------------------------|
E|------------------------------------------|

E|------------------------------------------|
B|-----9-7--------------------9----9--------|
G|-4/6-----8h10-11-8h10-8--10---10---10-----|
D|------------------------------------------|
A|------------------------------------------|
E|------------------------------------------|

E|------------------------------------------|
B|-11---------------------------------------|
G|----10-10-8-8-6-8/10----------------------|
D|---------------------11-------------------|
A|------------------------------------------|
E|------------------------------------------|

E|------------------------------------------|
B|-----9-7----------------------------------|
G|-4/6-----8h10-11-8h10-6-------------------|
D|------------------------------------------|
A|------------------------------------------|
E|------------------------------------------|

E|------------------------------------------|
B|-----9-7--------------------9----9--------|
G|-4/6-----8h10-11-8h10-8--10---10---10-----|
D|------------------------------------------|
A|------------------------------------------|
E|------------------------------------------|

E|------------------------------------------|
B|-14----13---------------------------------|
G|----13----13--10-8-8h10--3-5-6-10-8~------|
D|------------------------------------------|
A|------------------------------------------|
E|------------------------------------------|

[Pré-Refrão]

 D#m
Dois enganados

Dando uma chance pro amor
     C#
Eu quero voltar no passado
              G#                    D#m  G#
Ela sonha em ter de volta o que passou

[Refrão]

              F#
E na hora da cama
              G#
O corpo não aceita
               A#m
A pele não esquenta

Nem beijar a gente beija

                  F#
Respiro, fecho os olhos
                    G#
E já que eu não esqueço
                  A#m
Lembro de quem eu amo

E só assim eu compareço

              F#
E na hora da cama
              G#
O corpo não aceita
               A#m
A pele não esquenta

Nem beijar a gente beija

                  F#
Respiro, fecho os olhos
                    G#
E já que eu não esqueço
                  A#m
Lembro de quem eu amo

E só assim eu compareço

  F#   G#
Uôô, uôô
                                   A#m
E quem tá comigo, tá fazendo o mesmo
  F#   G#
Uôô, uôô
                                   F#  F#9
E quem tá comigo, tá fazendo o mesmo
    
Dois enganados
Composição de Danilo Dávilla / Gustavo Martins / Murilo Huff / Walace Melo
Colaboração e revisão:
  • Thiago Almeida
  • Rodrigues Guillaume
  • Jackson Lima
48.593 exibições
    • ½ Tom
    • A
    • Bb
    • B
    • C
    • Db
    • D
    • Eb
    • E
    • F
    • F#
    • G
    • Ab
  • Adicionar à lista

    0 comentários

    Ver todos os comentários

    Conseguiu tocar?

    8 Tocaram 5 Ainda não

    Grave um vídeo tocando Dois Enganados (part. Marília Mendonça) e nos envie!

    00:00 / 00:00
    Outros vídeos desta música
    Repetir Qualidade Automático
    Outros vídeos desta música
    00:00 / 00:00
    Automático

    Cifra Club Pro

    Aproveite o Cifra Club com benefícios exclusivos e sem anúncios
    Cifra Club Pro
    Aproveite o Cifra Club com benefícios exclusivos e sem anúncios
    OK