Cifra Club

A Hora e a Vez do Cabelo Nascer

Os Mutantes

Cifra: Principal (violão e guitarra)
Tom: E
E||--------|-----------------|---------|--------|
B||--------|---(10brbr-8-10)-|---------|--------|
G||--------|-----------------|---------|--------|
D||--6-----|--4--------------|--7------|--5-----|
A||--7-----|--5--------------|--7------|--5-----|
E||--------|-----------------|---------|--------|

Riff Principal:                                                                             
-------------------------------------------------|
-------------------------------------------------|
o-7h9-9-9-9-9-9--7------------------------------o|
o-------------------9-8-7---5---7---5-----------o| 
--------------------------7---7---7----7--5-6-7--|
-------------------------------------------------|

------|-------------------------------------------------|------|--------------|
------|-------------------------------------------------|------|--------------|
-7h9--|--7h9-9-9-9-9-9--7-------------------------------|--7h9-|--7---12-11-9-|
------|--------------------9-8-7---5---7---5------------|------|--7---12-11-9-|
------|--------------------------7---7---7----7--5-6-7--|------|--5-----------|
------|-------------------------------------------------|------|---------------


2º tema                                                                                
------------------------------|----------------------------------|--------|--3---------|
------------------------------|----------------------------------|--------|--3-------3-|
--7---9---7-------------------|--7---9---7-----------------------|--2-4-5-|--0-------2-|
----9---9-----9-7-5---7---5---|----9---9---9-8-7-5---7---5-------|--2-4-5-|--0-------0-|
--------------------7---7---7-|--------------------7---7---------|--0-2-3-|------------|
------------------------------|----------------------------7-6-5-|--------|------------|
                                                                               
--------|-------------------------|----|------5-3-|------3-3-|------5-3-|------5-3-|
--------|----8-10-10b12-10r-8-----|--3-|------5-3-|------3-3-|------5-3-|------5-3-|
--2-4-5-|--9-------------------9--|--2-|----------|----------|----------|----------|
--2-4-5-|-------------------------|--0-|--0-2-----|--0-2-----|--0-2-----|--0-2-----|
--0-2-3-|-------------------------|----|--0-2-----|--0-2-----|--0-2-----|--0-2-----|
--------|-------------------------|----|----------|----------|----------|----------|

Solo                                                                     
--15p12-------------------------------|-----------------------------|
--------15p12----------15-------------|-----------------------------|
--------------14p12-14b---16p14p12----|--10-10-10----10-12b12b12b12b|
-----------------------------------14-|--10-10-10-12-10-12b12b12b12b|
--------------------------------------|-----------12----------------|
--------------------------------------|-----------------------------|
                                                                           
---------------------12-8----|----------------|---------------------------|
--------------8-10-8------10-|--5/6-6--5/6-6--|--------------7/10-7-10-10b|
------5-7/9-9----------------|------7------7--|--------5/7-5--------------|
--5/7------------------------|----------------|--5/7-5--------------------|
-----------------------------|----------------|---------------------------|
-----------------------------|----------------|---------------------------|
                                                               
--13p10----------------------------|--------------------------|
--------13p10----------13----------|--------------------------|
--------------12p10-12b---12p10----|--5-5---5-5-5---5-5-5---5-|
--------------------------------12-|--5-5-7-5-5-5-7-5-5-5-7-5-|
-----------------------------------|------7-------7-------7---|
-----------------------------------|--------------------------|
                                                                           
------------------10-----------|
---------------------8-8-8-8---|
--------------7-9------------9-|
------5-7-7/9------------------|
--5/7--------------------------|
-------------------------------|
                
------------------------------|----------------------------------|
------------------------------|----------------------------------|
--7---9---7-------------------|--7---9---7-----------------------|
----9---9-----9-7-5---7---5---|----9---9---9-8-7-5---7---5-------|
--------------------7---7---7-|--------------------7---7---------|
------------------------------|----------------------------7-6-5-|

-----------------------------------------------------|
--9h11-11-11-11-11-11-9------------------------------|
------------------------11-10-9---7---9----7---------|
--------------------------------9---9---9----9-7-8-9-|
-----------------------------------------------------| 
-----------------------------------------------------| 
                                                                 
----------------------------------|------------|----------------------|
----------------------------------|------------|----------------------|
--5h7-7-7-7-7-7-5-----------------|------------|------------5-6-7-8-9-|
------------------7-6-5---3---5---|--3---------|--5-6-7-8-9-5-6-7-8-9-|
------------------------5---5---5-|----5-3-4-5-|--5-6-7-8-9-3-4-5-6-7-|
----------------------------------|------------|--3-4-5-6-7-----------|
                
----------||
----------||
--9-9-9-9-||
--9-9-9-9-||
--7-7-7-7-||
----------||
exibições 20.168
Acordes para:
    Composição: Arnolpho Lima Filho / Os Mutantes Colaboração e revisão:
    • André Carvalho
    • Daniel Silva

    0 comentários

    mostrar mais comentários

    Conseguiu tocar?

    1 tocaram 0 ainda não

    Grave um vídeo tocando A Hora e a Vez do Cabelo Nascer e mande pra gente!

    00:00 / 00:00
    outros vídeos desta música
    repetir qualidade Automático
    Outros vídeos desta música
    00:00 / 00:00
    Automático
    OK