Cifra Club

Deixe Entrar Um Pouco Dágua No Quintal

Os Mutantes

Cifra: Principal (violão e guitarra)
Selo Cifra Club: esta cifra foi revisada para atender aos critérios oficiais da nossa Equipe de Qualidade.
tom: Dm
E|-------------------------------------------------------|------------------------------------------|
B|-------------------------------------------------------|------------------------------------------|
G|-------------------------------------------------------|-------------------------------4-4-4------|
D|-------------------------------------------------------|-------------------------5-5-5-------5~/\-|
A|-12\---0-0-0-3-3-3-0-0-0-5-5-5-0-0-0-6-6-6-0-0-0-5-5-5-|-0-0-0-3-3-3-5-5-5-7-7-7------------------|
E|-------------------------------------------------------|------------------------------------------|

E|-------------------------------------------------|-------------------------------5-7-8-10~\-|
B|-------------------------------------------------|-------------------------5-7-8------------|
G|-------------------------------------------------|-------------2-4-5-4-5-7------------------|
D|-------------------------------------------------|-------2-3-5------------------------------|
A|-0-0-0-3-3-3-0-0-0-5-5-5-0-0-0-6-6-6-0-0-0-5-5-5-|-2-3-5------------------------------------|
E|-------------------------------------------------|------------------------------------------|


2. [GANCHO] (Escala Am):


E|-----------------------|-----------------------|
B|-----------------------|-----------------------|
G|-------2-----------7~\-|-------2-----------7~\-|
D|-----2-------------5~\-|-----2-------------5~\-|
A|-2h3-------2-5---2-----|-2h3-------2-5---2-----|
E|-----------------------|-----------------------|


3. [PONTE]:


E|-0-----3-----0--0---3-|-----------------------------------------|
B|-0-----3-----0--0---3-|-----------------------------------------|
G|-1-----0-----1--1---0-|-9/12-12-9-9/11~---7/9-9----7~---7/9-9-7-|
D|-2-----0-----2--2---0-|-------------------------10--------------|
A|-2-----2-----2--2---2-|-----------------------------------------|
E|-0-----3-----0--0---3-|-----------------------------------------|

E|-0-----3-----0--0---3-|---|
B|-0-----3-----0--0---3-|---|
G|-1-----0-----1--1---0-|---|
D|-2-----0-----2--2---0-|-2-|
A|-2-----2-----2--2---2-|-2-|
E|-0-----3-----0--0---3-|-0-|

E|-0-----3-----0--0---3-|---|
B|-0-----3-----0--0---3-|---|
G|-1-----0-----1--1---0-|---|
D|-2-----0-----2--2---0-|-9-|
A|-2-----2-----2--2---2-|-7-|
E|-0-----3-----0--0---3-|-0-|

E|-0-----3-----0--0---3-|-7/10~-|
B|-0-----3-----0--0---3-|-------|
G|-1-----0-----1--1---0-|-------|
D|-2-----0-----2--2---0-|-------|
A|-2-----2-----2--2---2-|-------|
E|-0-----3-----0--0---3-|-------|


4. [ESTROFE]:


 “Chuva de espinhos...”     “Faz..." “Não tem mais sentido, não...”    “Numa vida cheia...”
 |Gm7^^^                    |Gm7^^^  |C7(9)^^^                         |Gm7^^^   |
E|-----8h10-10-10-10-10-10\-|--------|---------------------------------|---------|
B|--------------------------|--------|---------------------------------|---------|
G|--------------------------|-3~-----|-3-3/5~--5/7~--7/9~--10~--10/12~-|-10tr12\-|
D|--------------------------|--------|---------------------------------|---------|
A|--------------------------|--------|---------------------------------|---------|
E|--------------------------|--------|---------------------------------|---------|

“Vou correr            para as nuuu - veeeeeeeeeeeeeeeeeeeeeeens”
 |A                           |D                                |Gm7       C7(9)|
E|----------------------------|---------------------------------|---------------|
B|----------------------------|-3--x-x--------------------------|---------------|
G|-2--x-x---------------------|-2--x-x--------------------------|---------------|
D|-2--x-x---------------------|-0--x-x------------------12\5-5~-|-(5)-----------|
A|-0--x-x-----------------12\-|----------5-4-3-2-1-0------------|---------------|
E|----------5-4-3-2-1-0-------|---------------------------------|---------------|

 “Já que a vida corre...”     “Faça...” “Mude de ideia, se esse for...” “Deixe entrar um pouco...”
 |Gm7^^^                      |Gm7^^^   |C7(9)^^^                       |Gm7^^^   |
E|-----10/12-12-12-12-12/14~\-|---------|-------------------------------|---------|
B|----------------------------|---------|-------------------------------|---------|
G|----------------------------|-3~------|-3/5~--5/7~--7/9~--10~--10/12~-|-10tr12\-|
D|----------------------------|---------|-------------------------------|---------|
A|----------------------------|---------|-------------------------------|---------|
E|----------------------------|---------|-------------------------------|---------|

“Fique em pé              sem  caaan - saaaaaaaassssssaaaaaaaaaaaaar”
 |A                           |D                                    |Gm7       C7(9)|
E|----------------------------|---------------------------7-8-9-10~-|---------------|
B|----------------------------|------------------7-8-9-10-----------|---------------|
G|-2--x-x---------------------|---------7-8-9-10--------------------|---------------|
D|-2--x-x---------------------|-------------------------------------|---------------|
A|-0--x-x-----------------12\-|-5-6-7-8-----------------------------|---------------|
E|----------5-4-3-2-1-0-------|-------------------------------------|---------------|

 |Gm7                                 |C7(9)              |
E|-------------------------15-17-18/20|-20---22-22-22-22\-|
B|----------------15-17-18------------|-------------------|
G|-------14-15-17---------------------|-------------------|
D|-15-17------------------------------|-------------------|
A|------------------------------------|-------------------|
E|------------------------------------|-------------------|


5. [DF RÃO]:


“Quanta coisa de ... eu já fiz”     “Tudo está   ...   em algum lugar” “Já é hora de           equilibrar...”
E|----------------------------------|----------------------------------|-3***--------------------5***-|
B|-3***------------------------3***-|-3***------------------------3***-|-4***--------------------6***-|
G|-3***------------------------3***-|-3***------------------------3***-|-5***--------------------7***-|
D|-3***------------------------2***-|-3***------------------------2***-|-5***--------------------7***-|
A|-----------------------------3***-|-----------------------------3***-|-3***--------------------5***-|
E|-3***-----------------------------|-3***-----------------------------|------------------------------|


3. [PONTE]:


E|-0-----3-----0--0---3-|-------------------------------5-7-8-9-10-11-12-13-14-15\-|
B|-0-----3-----0--0---3-|-------------------------5-7-8----------------------------|
G|-1-----0-----1--1---0-|-------------2-4-5-4-5-7----------------------------------|
D|-2-----0-----2--2---0-|-------2-4-5----------------------------------------------|
A|-2-----2-----2--2---2-|-2-3-5----------------------------------------------------|
E|-0-----3-----0--0---3-|----------------------------------------------------------|

E|-0-----3-----0--0---3-|-------------------------------------|
B|-0-----3-----0--0---3-|-------------------------------2-3-5-|
G|-1-----0-----1--1---0-|-------------------2-2---2-4-5-------|
D|-2-----0-----2--2---0-|-------2-2---2-4-5-------------------|
A|-2-----2-----2--2---2-|-2-4-5-------------------------------|
E|-0-----3-----0--0---3-|-------------------------------------|

E|-0-----3-----0--0---3-|-------------------------0-6h7-0-6h7-0-11h12-0-12-|
B|-0-----3-----0--0---3-|-------------0-4h5-0-4h5--------------------------|
G|-1-----0-----1--1---0-|-0-3h4-0-3h4--------------------------------------|
D|-2-----0-----2--2---0-|--------------------------------------------------|
A|-2-----2-----2--2---2-|--------------------------------------------------|
E|-0-----3-----0--0---3-|--------------------------------------------------|

E|-0-----3-----0--0---3-|-------------------------------------------------------...|
B|-0-----3-----0--0---3-|-15p14p12----12-14p12----12-15p14p12----12-14p12----12-...|
G|-1-----0-----1--1---0-|----------14----------14-------------14----------14----...|
D|-2-----0-----2--2---0-|-------------------------------------------------------...|
A|-2-----2-----2--2---2-|-------------------------------------------------------...|
E|-0-----3-----0--0---3-|-------------------------------------------------------...|

E|...-------------------------------------------|
B|...-15p14p12----12-14p12----12-15p14p12----12-|
G|...----------14----------14-------------14----|
D|...-------------------------------------------|
A|...-------------------------------------------|
E|...-------------------------------------------|


4. [ESTROFE]:


 “Foi por culpa minha o que eu deixei passar”               “Quanto mais se...”
 |Gm7^^^                                                    |Gm7^^^                 |
E|-17b18-17~-15h17p15-13h15p13-12h13p12-10h12h10-8-10b(12~)-|------8/10b(12-12-12~)-|
B|----------------------------------------------------------|-----------------------|
G|----------------------------------------------------------|-3~--------------------|
D|----------------------------------------------------------|-----------------------|
A|----------------------------------------------------------|-----------------------|
E|----------------------------------------------------------|-----------------------|

 “Mexa-se rapaz, não...”   “Abra bem os olhos para o amanhecer”
 |C7(9)^^^                 |Gm7^^^                                                 |
E|-------------------------|-------------------------------------------------------|
B|-------------------------|-------------------------------------------------------|
G|-3/5~--5/7~--7/9~--9/10~-|-10/12~-12/14~-14/15~-15/17b(19)r17-15h17p15--15h17p15-|
D|-------------------------|--------------------------------------------17---------|
A|-------------------------|-------------------------------------------------------|
E|-------------------------|-------------------------------------------------------|

“Faça força, irmão,       não morreeeeeeeeeeeeeeeeeeeeeeeeeeeeer”
 |A                           |D                                |Gm7       C7(9)|
E|----------------------------|---------------------------------|---------------|
B|----------------------------|-3--x-x--------------------------|---------------|
G|-2--x-x---------------------|-2--x-x--------------------------|---------------|
D|-2--x-x---------------------|-0--x-x------------------12\5-5~-|-(5)-----------|
A|-0--x-x-----------------12\-|----------5-4-3-2-1-0------------|---------------|
E|----------5-4-3-2-1-0-------|---------------------------------|---------------|

 “Deus...” “Dê um pouco...” “Não se desespere com a escuridão"
 |Gm7^^^   |Gm7^^^          |C7(9)^^^                       |
E|-----12\-|------6/8-8-8~\-|-------------------------------|
B|---------|----------------|-------------------------------|
G|---------|-3~-------------|-3/5~--5/7~--7/9~--10~--10/12~-|
D|---------|----------------|-------------------------------|
A|---------|----------------|-------------------------------|
E|---------|----------------|-------------------------------|

 “Abra a mente e deixe entrar a inspiração”
 |Gm7^^^                                                 |
E|-------------------------------------------------------|
B|--------8h10p8----8h10p8----8h10p8----8h10p8----8h10p8-|
G|-10tr12--------10--------10--------10--------10--------|
D|-------------------------------------------------------|
A|-------------------------------------------------------|
E|-------------------------------------------------------|

“E o que é bom            vem depoooooooooooooooooooooooooiiiiis”
 |A                           |D                                |Gm7       C7(9)|
E|----------------------------|---------------------------------|---------------|
B|----------------------------|-3--x-x--------------------------|---------------|
G|-2--x-x---------------------|-2--x-x--------------------------|---------------|
D|-2--x-x---------------------|-0--x-x------------------12\5-5~-|-(5)-----------|
A|-0--x-x-----------------12\-|----------5-4-3-2-1-0------------|---------------|
E|----------5-4-3-2-1-0-------|---------------------------------|---------------|

 |Gm7                                         |C7(9)                   |
E|-------------------------------15--17--18~\-|------------------------|
B|--------------------15--18------------------|-------------------15~\-|
G|-----14-15--17------------------------------|----------14-15-17------|
D|--17----------------------------------------|----15-17---------------|
A|--------------------------------------------|-17---------------------|
E|--------------------------------------------|------------------------|


5. [DF RÃO]:


“Muita estrada  ...  vida já andei” “Quase nem senti ... que tomei”   “Não sou mais,       não sou menos”
E|---------------------------------|----------------------------------|-3***------------------------5***-|
B|-3***-----------------------3***-|-3***------------------------3***-|-4***------------------------6***-|
G|-3***-----------------------3***-|-3***------------------------3***-|-5***------------------------7***-|
D|-3***-----------------------2***-|-3***------------------------2***-|-5***------------------------7***-|
A|----------------------------3***-|-----------------------------3***-|-3***------------------------5***-|
E|-3***----------------------------|-3***-----------------------------|----------------------------------|


6. [FINAL] (Escala Em):


E|--------------------|------------------------------|
B|--------------------|------------------------------|
G|-----------------9~-|------------------------------|
D|-5---7---7-9--------|-----------5-7----------------|
A|-------------7------|---------5-----7-5------------|
E|--------------------|-0---5h6-----------3| mb(1/4)p0-|

E|--------------------------|-----------------------------|
B|--------------------------|-----------------------------|
G|-----------------------9~-|-----------------------------|
D|-------5---7---7-9--------|----------5-7----------------|
A|-----5-------------7------|--------5-----7-5------------|
E|-5h6----------------------|-0--5h6-----------3| mb(1/4)p0-|

E|-----------------7***-|
B|-----------------7***-|
G|-----------------9***-|
D|-----------------9***-|
A|-----------------9***-|
E|-0---3---8---5---7***-|


******************************

| h = Hammer-on
| p = Pull-off
| / = Slide ascendente
| \ = Slide descendente
| ~ = Vibrato
| b (   ) = Bend (nota alvo)
| r = Release bend
| mb (1/4) = Microbend ¼ de tom
| x = Ghost note
| tr = Trinado
| (   ) = Sustenta nota anterior
| ^^^ = Palhetada rítmica
| *** = Palhetada arpejada
| ... = Continuação de compasso
00:00 / 00:00
Outros vídeos desta música
Repetir
Outros vídeos desta música
33 exibições
    • ½ Tom
    • Am
    • Bbm
    • Bm
    • Cm
    • C#m
    • Dm
    • Ebm
    • Em
    • Fm
    • F#m
    • Gm
    • G#m
  • Adicionar à lista

Afinação da cifra

Afinador online

    0 comentários

    Ver todos os comentários

    Entre para o Cifra Club PRO

    Tenha acesso a benefícios exclusivos no App e no Site

    • Chega de anúncios

    • Mais recursos no app do Afinador

    • Atendimento Prioritário

    • Aumente seu limite de lista

    • Ajude a produzir mais conteúdo

    00:00 / 00:00

    Cifra Club Pro

    Aproveite o Cifra Club com benefícios exclusivos e sem anúncios
    Cifra Club Pro
    Aproveite o Cifra Club com benefícios exclusivos e sem anúncios
    OK