Cifra Club

Aprenda

It's Very Nice 'prá' Xuxu

Os Mutantes

Cifra: Principal (violão e guitarra)
Tom: D
[Intro]

E|10-9-10--------------------------7--------------7-7-7--7-------------7-7-7--7-9-10--9--10~---7-9-10-12|
B|--------10-9-10--------------------10-8-7-8-10-----------10-8-7-8-10----------------------------------|
G|----------------10-9-11-------------------------------------------------------------------------------|
D|------------------------12-11-12----------------------------------------------------------------------|
A|------------------------------------------------------------------------------------------------------|
E|------------------------------------------------------------------------------------------------------|

E|15---14--12-14--17|
B|------------------|
G|------------------|
D|------------------|
A|------------------|
E|------------------|

 D  A       Bm   A
Hoje tudo mudou
 D   A       Bm
Ontem amei você
G                    A
O que você me dá, é lindo de morrer
É lindo, Oh! Oh! Oh! Yeah!
 D                     Bm  A
It's very nice pra chuchu, baby
 D                     Bm  A
It's very nice pra chuchu, baby
 D                     Bm
It's very nice pra chuchu
  D    A        Bm  A
Provei do seu amor
   D   A          Bm
Eu sei, foi muito bom
G                    A
O que você me dá, é lindo de morrer
É lindo, Oh! Oh! Oh! Yeah!
 D                     Bm  A
It's very nice pra chuchu, baby
 D                     Bm  A
It's very nice pra chuchu, baby
 D                     Bm
It's very nice pra chuchu
                          A
Hoje eu falo a sua língua

Eu era meio desligado

Eu não sou mais aquele

Palmas para mim

Palmas para mim

Minha Menina

Oh! Oh! Oh! Yeah!
D                      Bm  A
It's very nice pra chuchu, baby
Composição de Arnaldo Baptista / Rita Lee / Sergio Dias
Colaboração e revisão:
  • Thiago Gabriel
18.391 exibições
    • ½ Tom
    • A
    • Bb
    • B
    • C
    • Db
    • D
    • Eb
    • E
    • F
    • F#
    • G
    • Ab
  • Adicionar à lista

    0 comentários

    Mostrar mais comentários

    Conseguiu tocar?

    2 Tocaram 0 Ainda não

    Grave um vídeo tocando It's Very Nice 'prá' Xuxu e mande pra gente!

    00:00 / 00:00
    outros vídeos desta música
    repetir qualidade Automático
    Outros vídeos desta música
    00:00 / 00:00
    Automático

    Cifra Club Pro

    Aproveite o Cifra Club com benefícios exclusivos e sem anúncios
    Cifra Club Pro
    Aproveite o Cifra Club com benefícios exclusivos e sem anúncios
    OK