Cifra Club

Honey Power

My Bloody Valentine

Cifra: Principal (violão e guitarra)
Selo Cifra Club: esta cifra foi revisada para atender aos critérios oficiais da nossa Equipe de Qualidade.
tom: Em
   A       A*      G       C       D       Dm      B
E|-5-------0-------0-------8-------0-------0-------0-------|
B|-5-------5-------0-------8-------0-------0-------0-------|
G|-6-------6-------4-------9-------11------x-------8-------|
D|-7-------7-------5-------10------12------12------9-------|
A|-7-------7-------5-------10------12------12------9-------|
E|-5-------5-------3-------8-------10------10------7-------|


[Main riff]
Belinda plays the chords shown above the bar while Kevin plays the melody.

   A                       C       G                       C
E|-----------------------------------------------------------------|
B|-----------------------------------------------------------------|
G|-----9-----9---------9-----9---------7-----7---------7-----7-----|
D|-7-------7-----7-7-------7-----7-9-------9-----9-9-------9-----9-|
A|-----------------------------------------------------------------|
E|-----------------------------------------------------------------|
                                                                      x2
   D                        C       A               G
E|-----------------------------------------------------------------|
B|-----------------------------------------------------------------|
G|-----14----14---------14----14--------9-----9---------7------7---|
D|-12------12----12-12------12----7-7-------7-----7-9-------9----9-|
A|-----------------------------------------------------------------|
E|-----------------------------------------------------------------|


[Verse]
Same pattern throughout the entire song

A        A*       B
  Change my mouth   Here with your tongue
Dm          D    A                         G
  Your body soft   Over there where you're laying down

A      A*        B
  Hold my flower   Here and you will now
Dm  D  A                     G
  Fall   Sure you did from appearing smile


[Outro]

   A               G                A               G
E|-----------------------------------------------------------------|
B|-----------------------------------------------------------------|
G|-----9-----9---------7------7---------9-----9---------7------7---|
D|-7-------7-----7-9-------9------9-7-------7-----7-9-------9------|
A|-----------------------------------------------------------------|
E|-----------------------------------------------------------------|

Song structure:
Main riff
Verse
Main riff
Verse
Main riff x2
Outro
Outros vídeos desta música
    15 exibições
      • ½ Tom
      • Am
      • Bbm
      • Bm
      • Cm
      • C#m
      • Dm
      • Ebm
      • Em
      • Fm
      • F#m
      • Gm
      • G#m
    • Adicionar à lista

    Afinação da cifra

    Afinador online

      0 comentários

      Ver todos os comentários

      Conseguiu tocar?

      0Tocaram0Ainda não

      Grave um vídeo tocando Honey Power e nos envie!

      Toque também

      1. Imagem do artista SlowdiveDagger Slowdive
      2. Imagem do artista Sonic YouthIncinerate Sonic Youth
      3. Imagem do artista The Jesus And Mary ChainHead On The Jesus And Mary Chain
      4. Imagem do artista RideParalysed Ride

      Entre para o Cifra Club PRO

      Tenha acesso a benefícios exclusivos no App e no Site

      • Chega de anúncios

      • Badges exclusivas

      • Mais recursos no app do Afinador

      • Atendimento Prioritário

      • Aumente seu limite de lista

      • Ajude a produzir mais conteúdo

      Cifra Club Pro

      Aproveite o Cifra Club com benefícios exclusivos e sem anúncios
      Cifra Club Pro
      Aproveite o Cifra Club com benefícios exclusivos e sem anúncios
      Ops (: Contenido disponible sólo en portugués.
      OK