Cifra Club

Loomer

My Bloody Valentine

Cifra: Principal (violão e guitarra)
Selo Cifra Club: esta cifra foi revisada para atender aos critérios oficiais da nossa Equipe de Qualidade.
tom: G
[Intrumental Intro]
  G             C/G
E|------------------------------| x4
B|3--3--3-3-3-3/6--6-6-6-6-6-6-6|
G|0--0--0-0-0-0/5--5-5-5-5-5-5-5|
D|0--0--0-0-0-0-0--0-0-0-0-0-0-0|
A|------------------------------|
E|3--3--3-3-3-3/6--6-6-6-6-6-6-6|

[Verse 1]
D                  C            A#
Tiptoe down to the holy places
                C                
Where you going now, don't turn around
D               C                    A#
Little girls in their party dresses
               C           
Didn't like anything there

[Lead Melody]
  G                              C               D
E|--------4--------------4----5-| 2------2--------2------2------| x2
B|0---3----------0---3----------|----3---------------3---------|
G|------------------------------|---------2---------------2----|
D|------------------------------|------------------------------|
A|------------------------------|------------------------------|
E|------------------------------|------------------------------|

[Intrumental]
  G             C/G
E|------------------------------| x4
B|3--3--3-3-3-3/6--6-6-6-6-6-6-6|
G|0--0--0-0-0-0/5--5-5-5-5-5-5-5|
D|0--0--0-0-0-0-0--0-0-0-0-0-0-0|
A|------------------------------|
E|3--3--3-3-3-3/6--6-6-6-6-6-6-6|
         
[Verse 2]
D                      C               A#                                 
Pretty boys with their sunshine faces
               C          
Carrying their heads down
D                  C              A#                         
Tiptoe down to the lonely places
                C                      
Where you going now, don't turn around

[Intrumental Outro]
  G             C/G
E|------------------------------| x4
B|3--3--3-3-3-3/6--6-6-6-6-6-6-6|
G|0--0--0-0-0-0/5--5-5-5-5-5-5-5|
D|0--0--0-0-0-0-0--0-0-0-0-0-0-0|
A|------------------------------|
E|3--3--3-3-3-3/6--6-6-6-6-6-6-6|
(I usually tend to increase the amount of force on the tremolo bar 
during the last bar with heavy fuzz to match the recording.)
Outros vídeos desta música
    106 exibições
      • ½ Tom
      • A
      • Bb
      • B
      • C
      • Db
      • D
      • Eb
      • E
      • F
      • F#
      • G
      • Ab
    • Adicionar à lista

    Afinação da cifra

    Afinador online

      0 comentários

      Ver todos os comentários

      Conseguiu tocar?

      0Tocaram0Ainda não

      Grave um vídeo tocando Loomer e nos envie!

      Toque também

      1. Imagem do artista SlowdiveDagger Slowdive
      2. Imagem do artista Sonic YouthIncinerate Sonic Youth
      3. Imagem do artista The Jesus And Mary ChainThe Living End The Jesus And Mary Chain
      4. Imagem do artista RideParalysed Ride

      Entre para o Cifra Club PRO

      Tenha acesso a benefícios exclusivos no App e no Site

      • Chega de anúncios

      • Badges exclusivas

      • Mais recursos no app do Afinador

      • Atendimento Prioritário

      • Aumente seu limite de lista

      • Ajude a produzir mais conteúdo

      Cifra Club Pro

      Aproveite o Cifra Club com benefícios exclusivos e sem anúncios
      Cifra Club Pro
      Aproveite o Cifra Club com benefícios exclusivos e sem anúncios
      Ops (: Contenido disponible sólo en portugués.
      OK