Cifra Club

Inquilino (part. Zé Neto e Cristiano)

Naiara Azevedo

Cifra: Principal
exibições 66.967
Tom: C
[Intro]  G  D  C

[Solo]

E|---------------------------------------------------------7/8/7--7/8/7--8/7--8/10--/7--|
B|--------------------------------------------------------------------------------------|
G|-----------------------------2h4-2-2-2h4-2---------------4/5/4--4/5/4--5/4--5/7---/4--|
D|-4h5-5-4-4h5-4-4h5-------------------------/4-2-4-2-4-2--------5------5---------------|
A|-------------------5~-55-5-5----------------------------------------------------------|
E|--------------------------------------------------------------------------------------|

   G
Ontem eu paguei a conta do bar
Com o dinheiro do aluguel mais uma vez
 D
Sei que o senhor quer me despejar
To atrasando mais um mês
                 Em
A culpa é do meu ex
                                 
Que ta doendo tudo que ele fez comigo
                                   C
Fica tranquilo que eu não vou da prejuízo
                                D
Devo não nego e pago quando melhorar
   G
E tudo que eu bebo dez por cento é do garçom
        D
Só um whisky doze anos pra curar desilusão
          Em
Eu to gastando
                             C
Eu to bebendo e não ta adiantando

              G
Aí eu não do conta
            D
Aí é muita conta
                Em
Ta puxado meu amigo
                  C
Tem dó do seu inquilino 
         
[Solo]  Bb  F  C  Dm  Bb

E|--------------------------------------------------------------------------------------------------------1-|
B|---------------------------------------------------------------------------------------/5--/3---/1------1-|
G|----------------------------------------------------------------------------------------------------------|
D|-2h3-3-2-2h3-2-2h3-----------5/7-5-5-5h7-5--2-0-2-0-2-0-2h3/0--22-2h3-2-3-2-3-5-3/0---/5--/3--/2----2/3---|
A|-------------------3~-33-3-3------------------------------------------------------------------------------|
E|----------------------------------------------------------------------------------------------------------|

   F
E tudo que eu bebo dez por cento é do garçom
        C
Só um whisky doze anos pra curar desilusão
          Dm
Eu to gastando
                             Bb
Eu to bebendo e não ta adiantando

              F
Aí eu não do conta
            C
Aí é muita conta
                Dm
Ta puxado meu amigo
                  Bb
Tem dó do seu inquilino  
                  F
Tem dó do seu inquilino
Acordes para:
    Colaboração e revisão:

    0 comentários

      mostrar mais comentários

      Conseguiu tocar?

      6tocaram0ainda não

      Grave um vídeo tocando Inquilino (part. Zé Neto e Cristiano) e mande pra gente!

      00:00 / 00:00
      outros vídeos desta música
      repetirqualidadeautomática
      Outro vídeos desta música
        00:00 / 00:00
        automática
        OK