Cifra Club

Aprenda

Nem Fala Tchau, Nem Fala Oi

Naiara Azevedo

Cifra: Principal (violão e guitarra)
tom: F# (forma dos acordes no tom de E) Capotraste na 2ª casa
[Intro]  E  B9  C#m7  A9

[Solo]

E|-----------------------------------------------------|
B|-9/11-11-11-11/9-9/11--9/11-11-11-11-----------------|
G|-----------------------------------------------------|
D|-----------------------------------------------------|
A|-----------------------------------------------------|
E|-----------------------------------------------------|

E|-----------------------------------------------------|
B|---9-11-11/12/11-9-11-7------------------------------|
G|-8---------------------------------------------------|
D|-----------------------------------------------------|
A|-----------------------------------------------------|
E|-----------------------------------------------------|

        E
É engraçado
                    A9
Parece que a gente sente
Quando tá perdendo
        C#m7
É engraçado
                  A9
Parece que o coração
Aos poucos vai doendo

        C#m7
E entendendo
                      A9
Que logo vai ficar sozinho
                         E
Que logo vai morrer de frio
                      B9
Que logo vai virar metade
                   A9
E o pior é que no fundo a gente sabe

                     E
Quando tem outra pessoa
                    B9
Quando eu te amo engasga
                      C#m7
Quando tem pressa pra ir embora
                     A9
Quando só encosta a boca e disfarça

     E
E assim não tem mais bom dia
         B9
Nem boa noite
Nem como vai
          C#m7
Nem como foi
A9
  Nem fala tchau, nem fala oi

[Solo]  E  B9  C#m7  A9

E|-----------------------------------------------------|
B|-9/11-11-11-11/9-9/11--9/11-11-11-11/9-11------------|
G|-----------------------------------------------------|
D|-----------------------------------------------------|
A|-----------------------------------------------------|
E|-----------------------------------------------------|

E|-----------------------------------------------------|
B|9/11-11-11-11----9-11-11/12/11-7---------------------|
G|---------------8-------------------------------------|
D|-----------------------------------------------------|
A|-----------------------------------------------------|
E|-----------------------------------------------------|

E
É engraçado
                    A9
Parece que a gente sente
Quando tá perdendo
        C#m7
É engraçado
                  A9
Parece que o coração
Aos poucos vai doendo

        C#m7
E entendendo
                      A9
Que logo vai ficar sozinho
                         E
Que logo vai morrer de frio
                      B9
Que logo vai virar metade
                   A9
E o pior é que no fundo a gente sabe

                     E
Quando tem outra pessoa
                    B9
Quando eu te amo engasga
                      C#m7
Quando tem pressa pra ir embora
                     A9
Quando só encosta a boca e disfarça

     E
E assim não tem mais bom dia
         B9
Nem boa noite
Nem como vai
          C#m7
Nem como foi
A9
  Nem fala tchau, nem fala oi

                     E
Quando tem outra pessoa
                    B9
Quando eu te amo engasga
                      C#m7
Quando tem pressa pra ir embora
                     A9
Quando só encosta a boca e disfarça

     E
E assim não tem mais bom dia
         B9
Nem boa noite
Nem como vai
          C#m7
Nem como foi
A9                         E
  Nem fala tchau, nem fala oi
Composição de Thales Lessa
Colaboração e revisão:
  • Marcos Paulo
12.205 exibições
    • ½ Tom
    • A
    • Bb
    • B
    • C
    • Db
    • D
    • Eb
    • E
    • F
    • F#
    • G
    • Ab
  • Adicionar à lista

    0 comentários

    Ver todos os comentários

    Conseguiu tocar?

    2 Tocaram 1 Ainda não

    Grave um vídeo tocando Nem Fala Tchau, Nem Fala Oi e nos envie!

    00:00 / 00:00
    Outros vídeos desta música
    Repetir Qualidade Automático
    Outros vídeos desta música
    00:00 / 00:00
    Automático

    Cifra Club Pro

    Aproveite o Cifra Club com benefícios exclusivos e sem anúncios
    Cifra Club Pro
    Aproveite o Cifra Club com benefícios exclusivos e sem anúncios
    OK