Cifra Club

Aprenda

Chora No Meu Colo

Naiara Azevedo

Cifra: Principal (violão e guitarra)
tom: Cm
[Intro] Ab  Bb  Gm  Cm  Bb

         Ab            Bb         Gm               Cm   Bb
E|----------------------------------------------------|
B|-4/9-9-9-8----9-8--4-6----4/9-9-9-8----9-8-3-3/4-4--|
G|-------8-8-8--8-8----7----------8-8-8--8-8-------5--|
D|----------------------------------------------------|
A|----------------------------------------------------|
E|----------------------------------------------------|

[Primeira Parte]

 Ab
Nem começa a falar
       Eb                        Bb
A sua cara tá entregando o que aconteceu
 Ab
Não canso e nem vou cansar
         Eb                              Bb            
Tá tudo bem, tô sempre aqui pra quando precisar

[Pré-Refrão]

  Ab
Quando ela te xingar
Bb
Eu te chamo de meu bem
  Gm
Quando ela te evitar
         Cm 
Você me liga e fala: Vem
               Bb       Ab
Que eu vou correndo te salvar
                      Bb
E se ela te fizer chorar

[Refrão]

              Eb
Chora no meu colo, bebê
              Bb
Deixa que eu cuido, cuido de você
              Cm
Chora no meu colo, bebê
                  Ab                    Bb
Com ela é de tristeza e comigo é de prazer

              Eb
Chora no meu colo, bebê
              Bb
Deixa que eu cuido, cuido de você
              Cm
Chora no meu colo, bebê
                  Ab                    Bb
Com ela é de tristeza e comigo é de prazer

Então chora, bebê

( Ab  Bb  Gm  Cm  Bb )

          Ab            Bb         Gm               Cm   Bb
E|----------------------------------------------------|
B|-4/9-9-9-8----9-8--4-6----4/9-9-9-8----9-8-3-3/4-4--|
G|-------8-8-8--8-8----7----------8-8-8--8-8-------5--|
D|----------------------------------------------------|
A|----------------------------------------------------|
E|----------------------------------------------------|

[Pré-Refrão]

  Ab
Quando ela te xingar
Bb
Eu te chamo de meu bem
  Gm
Quando ela te evitar
         Cm 
Você me liga e fala: Vem
               Bb       Ab
Que eu vou correndo te salvar
                      Bb
E se ela te fizer chorar

[Refrão]

              Eb
Chora no meu colo, bebê
              Bb
Deixa que eu cuido, cuido de você
              Cm
Chora no meu colo, bebê
                  Ab                    Bb
Com ela é de tristeza e comigo é de prazer

              Eb
Chora no meu colo, bebê
              Bb
Deixa que eu cuido, cuido de você
              Cm
Chora no meu colo, bebê
                  Ab                    Bb
Com ela é de tristeza e comigo é de prazer

Então chora, bebê

( Ab  Bb  Gm  Cm  Bb )

         Ab            Bb         Gm               Cm   Bb
E|----------------------------------------------------|
B|-4/9-9-9-8----9-8--4-6----4/9-9-9-8----9-8-3-3/4-4--|
G|-------8-8-8--8-8----7----------8-8-8--8-8-------5--|
D|----------------------------------------------------|
A|----------------------------------------------------|
E|----------------------------------------------------|

Com ela é de tristeza e comigo é de prazer
                Cm
Então chora, bebê
Composição de Blener Maycon / Rafael Quadros / Rodrigo Reys
Colaboração e revisão:
  • Getúlio Vasconcelos
17.097 exibições
    • ½ Tom
    • Am
    • Bbm
    • Bm
    • Cm
    • C#m
    • Dm
    • Ebm
    • Em
    • Fm
    • F#m
    • Gm
    • G#m
  • Adicionar à lista

    0 comentários

    Ver todos os comentários

    Conseguiu tocar?

    2 Tocaram 8 Ainda não

    Grave um vídeo tocando Chora No Meu Colo e nos envie!

    00:00 / 00:00
    outros vídeos desta música
    repetir qualidade Automático
    Outros vídeos desta música
    00:00 / 00:00
    Automático

    Cifra Club Pro

    Aproveite o Cifra Club com benefícios exclusivos e sem anúncios
    Cifra Club Pro
    Aproveite o Cifra Club com benefícios exclusivos e sem anúncios
    OK