Cifra Club

Rapariga Digital

Naiara Azevedo

Cifra: Principal (violão e guitarra)
Tom: Bm
[Intro] Bm  G  Em  A9

E|-------2-5/7---5/7--7-7-7-7-7--5-5/7-7---7-7-7-7-7--|
B|-----3---------7/8--8-8-8-8-8--7-7/8-8---8-8-8-8-8--|
G|-2/4------------------------------------------------|
D|----------------------------------------------------|
A|----------------------------------------------------|
E|----------------------------------------------------|

E|-7/9-----9--9--9--9--9--9---------------------------|
B|-8/10---10-10-10-10-10-10---------------------------|
G|----------------------------------------------------|
D|----------------------------------------------------|
A|----------------------------------------------------|
E|----------------------------------------------------|

E|-------2-5/7---5/7--7-7-7-7-7--5-5/7-7---7-7-7-7-7--|
B|-----3---------7/8--8-8-8-8-8--7-7/8-8---8-8-8-8-8--|
G|-2/4------------------------------------------------|
D|----------------------------------------------------|
A|----------------------------------------------------|
E|----------------------------------------------------|

E|-7/9-----9--9--9--9--9--9/10------------------------|
B|-8/10---10-10-10-10-10-10/12------------------------|
G|----------------------------------------------------|
D|----------------------------------------------------|
A|----------------------------------------------------|
E|----------------------------------------------------|

[Primeira Parte]

 Bm
Solta meu braço
   G                           Em
A vida é minha o que quiser fazer eu faço
  A9                              Bm
Abaixa o tom de voz que não sou surda não
     G                          Em      A9
Nem perde o seu tempo dando explicação

[Pré-Refrão]

Bm              G
 Logo você bebê
                  Em
O Rei da esperteza
                      A9
Deixou o celular desbloqueado na minha mesa

Bm           G
Eu e você já era
           Em                 A9
Quer conhecer uma pessoa pega o celular dela

[Refrão]

Bm                        G
Essas piriguetes de internet
              Em
Rapariga digital
               A9
Nunca vão superar uma mulher real

Bm                        G
Essas piriguetes de internet
                   Em
Que todo mundo mordeu
                        A9
Quer trair, cê trai com uma mais bonita do que eu

Bm                        G
Essas piriguetes de internet
              Em
Rapariga digital
               A9
Nunca vão superar uma mulher real

Bm                        G
Essas piriguetes de internet
                   Em
Que todo mundo mordeu
                        A9
Quer trair, cê trai com uma mais bonita do que eu

( Bm  G  Em  A9 )


E|-------2-5/7---5/7--7-7-7-7-7--5-5/7-7---7-7-7-7-7--|
B|-----3---------7/8--8-8-8-8-8--7-7/8-8---8-8-8-8-8--|
G|-2/4------------------------------------------------|
D|----------------------------------------------------|
A|----------------------------------------------------|
E|----------------------------------------------------|

E|-7/9-----9--9--9--9--9--9---------------------------|
B|-8/10---10-10-10-10-10-10---------------------------|
G|----------------------------------------------------|
D|----------------------------------------------------|
A|----------------------------------------------------|
E|----------------------------------------------------|

E|-------2-5/7---5/7--7-7-7-7-7--5-5/7-7---7-7-7-7-7--|
B|-----3---------7/8--8-8-8-8-8--7-7/8-8---8-8-8-8-8--|
G|-2/4------------------------------------------------|
D|----------------------------------------------------|
A|----------------------------------------------------|
E|----------------------------------------------------|

E|-7/9-----9--9--9--9--9--9/10------------------------|
B|-8/10---10-10-10-10-10-10/12------------------------|
G|----------------------------------------------------|
D|----------------------------------------------------|
A|----------------------------------------------------|
E|----------------------------------------------------|

[Pré-Refrão]

Bm              G
 Logo você bebê
                  Em
O Rei da esperteza
                      A9
Deixou o celular desbloqueado na minha mesa
Bm           G
Eu e você já era
           Em                 A9
Quer conhecer uma pessoa pega o celular dela

[Refrão]

Bm                        G
Essas piriguetes de internet
              Em
Rapariga digital
               A9
Nunca vão superar uma mulher real

Bm                        G
Essas piriguetes de internet
                   Em
Que todo mundo mordeu
                        A9
Quer trair, cê trai com uma mais bonita do que eu

Bm                        G
Essas piriguetes de internet
              Em
Rapariga digital
               A9
Nunca vão superar uma mulher real

Bm                        G
Essas piriguetes de internet
                   Em
Que todo mundo mordeu
                        A9
Quer trair, cê trai com uma mais bonita do que eu

[Final] Bm  G  Em  A9


E|-------2-5/7---5/7--7-7-7-7-7--5-5/7-7---7-7-7-7-7--|
B|-----3---------7/8--8-8-8-8-8--7-7/8-8---8-8-8-8-8--|
G|-2/4------------------------------------------------|
D|----------------------------------------------------|
A|----------------------------------------------------|
E|----------------------------------------------------|

E|-7/9-----9--9--9--9--9--9---------------------------|
B|-8/10---10-10-10-10-10-10---------------------------|
G|----------------------------------------------------|
D|----------------------------------------------------|
A|----------------------------------------------------|
E|----------------------------------------------------|

E|-------2-5/7---5/7--7-7-7-7-7--5-5/7-7---7-7-7-7-7--|
B|-----3---------7/8--8-8-8-8-8--7-7/8-8---8-8-8-8-8--|
G|-2/4------------------------------------------------|
D|----------------------------------------------------|
A|----------------------------------------------------|
E|----------------------------------------------------|

E|-7/9-----9--9--9--9--9--9/10------------------------|
B|-8/10---10-10-10-10-10-10/12------------------------|
G|----------------------------------------------------|
D|----------------------------------------------------|
A|----------------------------------------------------|
E|----------------------------------------------------|
exibições 12.737
Acordes para:
    Composição: Bruno Mandioca / Elvis Ellan / Henrique Castro / Maykow Melo Colaboração e revisão:
    • Getúlio Vasconcelos

    0 comentários

    mostrar mais comentários

    Conseguiu tocar?

    2 tocaram 1 ainda não

    Grave um vídeo tocando Rapariga Digital e mande pra gente!

    00:00 / 00:00
    outros vídeos desta música
    repetir qualidade Automático
    Outros vídeos desta música
    00:00 / 00:00
    Automático
    OK