Cifra Club

Aprenda

Deus É Fiel

Nani Azevedo

Cifra: Versão 5 (violão e guitarra)
tom: G
G             D           Em           C            G
SIM, DEUS É FIEL PARA CUMPRIR  TODA PALAVRA DITA A MIM
        D             G    D
DEUS É FIEL, DEUS É FIEL
 G            D           Em           C              G
SIM, DEUS É FIEL PARA CUMPRIR  TODA PROMESSA FEITA A MIM
        D              G
DEUS É FIEL, DEUS É FIEL.
 
    D                                     G
EU NÃO MORREREI ENQUANTO O SENHOR NÃO CUMPRIR EM MIM
D                                 Em
TODOS OS SONHOS QUE ELE MESMO SONHOU PRA MIM
     C                           G
EU QUERO VIVER EM SANTIDADE E ADORAÇÃO
  D                                 G
POIS É SÓ DELE, SOMENTE DELE O MEU CORAÇÃO. 

    D                                     G
TU NÃO MORRERÁS ENQUANTO O SENHOR NÃO CUMPRIR EM TI
D                                 Em
TODOS OS SONHOS QUE ELE MESMO SONHOU PRA TI
   C                           G                           
ENTÃO VIVERÁS EM SANTIDADE E ADORAÇÃO                                   
D                               G
POIS É SÓ DELE, SOMENTE DELE O TEU CORAÇÃO. 
D                                G
POIS É SÓ DELE, SOMENTE DELE O TEU CORAÇÃO. 
D                                G
POIS É SÓ DELE, SOMENTE DELE O TEU CORAÇÃO. 
Deus é fiel

Tablatura

Pista do Baixo

e|----------------------------------------------------------------------------|
B|----------------------------------------------------------------------------|
G|----------------------------------------------------------------------------|
D|------------0---------------------0-----------------0----------------0------|
A|-- -0-2-3----------------0-2-3-----------0-2-3-----------0-2-3--------------|
E|-3--------------2-3---3----------2-0--3-----------2-3--3-------------2-3----|

Pista do violão

e|---------0----------------------0-3-2-5-3----------0--------------------0-3-2-5-3-|
B|-0-1-3----3-3----0----0-1-3-------------0-1-3----3-3---0----0-1-3-----------------|
G|----------------2------------------------------------------2----------------------|
D|----------------------------------------------------------------------------------|
A|----------------------------------------------------------------------------------|
E|----------------------------------------------------------------------------------|

As duas juntas

e|--------0--------------------0-3--2--5-3------------0-------------------0-3-2---5-3----|
B|-0--1-3----3-3-----0--0--1-3----------------0--1-3----3-3----0--0--1-3-----------------|
G|-----------------2-----------------------------------------2---------------------------|
D|-------------0--------------------0---------------------0--------------------0---------|
A|----0--2-3---------------0-2-3-----------------0-2--3---------------0-2-3--------------|
E|-3---------------2--3--3---------------2-0--3---------------2-3--3--------------2-3----|
-
Composição de Nani Azevedo
Colaboração e revisão:
  • Gil Silvestre
2.631 exibições
    • ½ Tom
    • A
    • Bb
    • B
    • C
    • Db
    • D
    • Eb
    • E
    • F
    • F#
    • G
    • Ab
  • Adicionar à lista

    0 comentários

    Ver todos os comentários
    00:00 / 00:00
    outros vídeos desta música
    repetir qualidade Automático
    Outros vídeos desta música
    00:00 / 00:00
    Automático

    Cifra Club Pro

    Aproveite o Cifra Club com benefícios exclusivos e sem anúncios
    Cifra Club Pro
    Aproveite o Cifra Club com benefícios exclusivos e sem anúncios
    OK