Cifra Club

Deus É Fiel

Nani Azevedo

Cifra: Principal
exibições 357.180
Tom: A
Intro Dedilhado:

     A          D    E A          D  E   F#m
E|------------2-----------------2--4-7-5-----|
B|-2---2-3-5-----5---2---2-3-5---------------|
G|-----------------4-------------------------|
D|---------------------------------2-6-4-----|
A|-------2-4--5--4---------2-4--5------------|
E|-5---5-----------4-5---5-------------------|

     F#m     D    E A          D  E   A
E|--------2-----------------2--4-7-5--|
B|-2-3-5-----5---2---2-3-5---------5--|
G|-------------4-------------------2--|
D|-----------------------------2-6-2--|
A|---2-4--5--4---------2-4--5------4--|
E|-5-----------4-5---5-------------5--|

A             E            F#m           D            A
Sim  Deus é fiel para cumprir  Toda palavra dita a mim
          E           F#m   (D,E)
Deus é fiel  Deus é fiel
A             E           F#m            D             A
Sim  Deus é fiel para cumprir  Toda promessa feita a mim
        E            A
Deus é fiel  Deus é fiel

Refrão:

    E                                    A
Eu não morrerei enquanto o Senhor não cumprir em mim
E                               A
Todos os sonhos que Ele mesmo sonhou pra mim
   D                           A
Eu quero viver em santidade e adoração
E                                  A
Pois é só Dele  somente Dele o meu coração

Refrão 2:

   E                                     A
Tu não morrerás enquanto o Senhor não cumprir em ti
E                               A
Todos os sonhos que Ele mesmo sonhou pra ti
  D                           A
Então viverás em santidade e adoração
E                                  A
Pois é só Dele  somente Dele o teu coração
E                                  A
Pois é só Dele  somente Dele o teu coração
E                                  A
Pois é só Dele  somente Dele o teu coração

0 comentários

    mostrar mais comentários

    Conseguiu tocar?

    16tocaram0ainda não

    Grave um vídeo tocando Deus É Fiel e mande pra gente!

    00:00 / 00:00
    outros vídeos desta música
    repetirqualidadeautomática
    Outro vídeos desta música
      00:00 / 00:00
      automática
      OK