Cifra Club

Aprenda

Não Dá Mais

NDK

Cifra: Principal (violão e guitarra)
Já pensou em usar uma coleção de roupas do Cifra Club? Responda as perguntas abaixo e nos ajude nessa missão! →
tom: B
(Intro)

F#         C#      B          C#           F#       C#    B                 C#
Não dá mais, é a hora de mudar, Quero paz, já cansei de esperar
F#         C#      B          C#               B
Não é assim que eu te quero perto de mim, vem pra mim

(Solinho)

                             F#                        C#                B
É isso aí, é pra valer, amigo venha ver, a hora é agora não tem erro tamu junto vamo aê
                             F#                        C#                B
Embarque nessa onda, o mundo é muito maior, ande do lado de quem te quer na melhor
              C#                                                             B ( B  A#  B  A#  B )
Se você acha que não ta no caminho certo abre o olho então...
                  C#                                                          B (  D#   C#  D# )
 estrada é louca, a vida é curta e tá na hora de você viver...

Refrão:
F#        C#      B           C#             F#        C#      B           C#
Não da mais, é a hora de mudar,    Quero paz, já cansei de esperar
F#        C#      B           C#                    B
Não é assim, que eu te quero perto de mim, vem pra mim

           F#                          C#                   B
É esse som que eu vou cantar pra você, bola pra frente meu amigo isso é teu
                                F#                          C#                   B
Não fique parado olhando, tudo pode acontecer, saia da sua toca, o tempo passa pode crer
        C#                                                                 B  ( Gt 2:B A# B A# B)
Porque não sou só eu o louco quem ta vendo que não é assim
C#                                             B ( D  F  F# )
hega de bobeira, abre o olho e vai ser feliz!

Refrão:
F#        C#      B           C#             F#        C#      B           C#
Não da mais, é a hora de mudar,    Quero paz, já cansei de esperar
F#        C#      B           C#                    B
Não é assim, que eu te quero perto de mim, vem pra mim
F#        C#      B           C#                F#               C#          B           C#
Vou queimar tudo que ficou pra trás.  Sempre em paz, a vida é você quem faz

F#        C#      B           C#               B
PORQUE VC ESTA VIVENDO A SUA IMAGINAÇÃO?

                       ( F#  E   F#)    ( F#  E   F#)   G
ESSA BRISA ERRADA, CABEÇA FRACA
                                        ( F#  E   F#)    ( F#  E   F#)               E   F
EU NÃO PRECISO DE ALGUEM ASSIM DO MEU LADO NÃO
                            ( F#  E   F#)    ( F#  E   F#)   G
QUEM É DE VERDADE, SABE O QUE FAZ PARTE
                                        ( F#  E   F#)    ( F#  E   F#)
MOSTRA SUA ARTE, QUEM É VOCÊ? O QUE VOCÊ QUER?

( B  C#  D#  B  C#  F# )

(Solo)

Refrão:
F#        C#      B           C#             F#        C#      B           C#
Não da mais, é a hora de mudar,    Quero paz,      eu já cansei
F#        C#      B           C#                   G#         ( A#    B)
Não é assim, que eu te quero perto de mim, qual é? Chega aí
F#        C#      B           C#        F#               C#          B           C#
Vem pra mim, vem pra mim, sempre mais, eu sou capaz
F#        C#      B           C#              G#         ( A#    B)
Vem pra mim      yeah yeah. Sua vida é você quem faz!
C# // D#   F  F#
Intro:
E|------------------------------------------------------------------------------------------------------------|
B|------------------------------------------------------------------------------------------------------------|
G|------------------------------------------------------------------------------------------------------------|
D|---11-------------------------------------------11----------------------------------------------------------|
A|----9-------- 9---9------11----9/11---11--------9------9---9------11---9/11---11----------------------------|
E|--------------7---7-------9----7/9-----9---------------7---7-------9----7/9---9-----------------------------|

E|------------------------------------------------------------------------------------------------------------|
B|------------------------------------------------------------------------------------------------------------|
G|------------------------------------------------------------------------------------------------------------|
D|------------------------------------------------------------------------------------------------------------|
A|------9-----9/11----11----11----------9-----9/11-----11/9---9-----------------------------------------------|
E|------7-----7/9-----9------9----------7-----7/9------9/7 ---7-----------------------------------------------|

E|------------------------------------------------------------------------------------------------------------|
B|------------------------------------------------------------------------------------------------------------|
G|------------------------------------------------------------------------------------------------------------|
E|------------------------------------------------------------------------------------------------------------|
B|--11---11-----11h12p11-----11---11h12p11---------13--- 13--12--12--11--11-----13--13--12--12---11--11-------|
G|--11---11-----11-----------11---11---------------11----11--11--11--11--11-----11--11--11--11---11--11-------|

Solinho:

         F#                                        C#                                               B
E|------------------------------------------------------------------------------------------------------------|
B|------------------------------------------------------------------------------------------------------------|
G|-----13b15---13b15---13b15b13-11-13--11---13---13b15b13 11h13p11-------------11----11-13--------------------|
D|-----------------------------------------------------------------11/13---11-----13--------------------------|
A|------------------------------------------------------------------------------------------------------------|
E|------------------------------------------------------------------------------------------------------------|       F#                                        C#                                               B
E|------------------------------------------------------------------------------------------------------------|
B|------------------------------------------------------------------15b17-15--11------------------------------|
G|--13b15---13b15---13b15b13-11-13---11---13---13b15b13 11h13p11-------------------13/11-13^11----------------|
D|------------------------------------------------------------------------------------------------------------|
A|------------------------------------------------------------------------------------------------------------|
E|------------------------------------------------------------------------------------------------------------|

Solo:
         F#                                        C#                                               B
E|------------------------------------------------------------------------------------------------------------|
B|-------7-7---------7-7----------7-7-7-----------------------------------------------------------------------|
G|---4/6-6-6-----4/6-6-6------4/6-6-6-6-----------------------------------------------------------14-11-14-11-|
D|-----------------------------------------------9--7--9--7------------7--7-----------------------------------|
A|------------------------------------------------------------7--9-------9---9--------------------------------|
E|---------------------------------------------------------------------------------7-8-9-8-7--2---------------|
         F#                                        C#                                               B
E|---9--------12---------------------------------------12/14-14-14---12-12-12--9-9-9--------------------------|
B|---12b14---------12--10--12--10------10----------------------------------------------12-12-12---10^---------|
G|---------------------------------11----------------------------------------------------------------11--9--11|
D|------------------------------------------------------------------------------------------------------------|
A|------------------------------------------------------------------------------------------------------------|
E|------------------------------------------------------------------------------------------------------------|

Riff Final:
E|------------------------------------------------------------------------------------------------------------|
B|--11--11---11-12-11---11----11-12-11------14-14-12-12-11-11------11---11---11-12-11---11---11-12-11---------|
G|--11--11---11-11-11---11----11-11-11------11-11-11-11-11-11------11---11---11-11-11---11---11-11-11---------|
D|------------------------------------------------------------------------------------------------------------|
A|------------------------------------------------------------------------------------------------------------|
E|------------------------------------------------------------------------------------------------------------|
Composição de No Ducky
Colaboração e revisão:
  • Guilherme Tohi
153 exibições
    • ½ Tom
    • A
    • Bb
    • B
    • C
    • Db
    • D
    • Eb
    • E
    • F
    • F#
    • G
    • Ab
  • Adicionar à lista

    0 comentários

    Ver todos os comentários

    Conseguiu tocar?

    0 Tocaram 0 Ainda não

    Grave um vídeo tocando Não Dá Mais e nos envie!

    00:00 / 00:00
    Outros vídeos desta música
    Repetir Qualidade Automático
    Outros vídeos desta música
    00:00 / 00:00
    Automático

    Cifra Club Pro

    Aproveite o Cifra Club com benefícios exclusivos e sem anúncios
    Cifra Club Pro
    Aproveite o Cifra Club com benefícios exclusivos e sem anúncios
    OK