Cifra Club

Aprenda

Nunca Vou Te Deixar

NDK

Cifra: Principal (violão e guitarra)
Já pensou em usar uma coleção de roupas do Cifra Club? Responda as perguntas abaixo e nos ajude nessa missão! →
tom: E
INTRO :   ( B   F#   C#m   E9 ) 

         B
Você me procurou
          F#
Precisava conversar
           C#m
Tudo que você falou
         E9
Me fez parar pra pensar

              B
É difícil de aceitar
            F#
É difícil de entender
              C#m
Mas tudo isso vai passar
      E9
Basta você querer

G#m               F#          E
          Nunca é tarde pra mudar
                  G#m     F#/Bb     E9
          Saiba que comigo sempre pode contar

REFRÃO
           B
Sempre que você quiser
          F#
Sempre que precisar
         C#m
Eu quero estar ai
        E9
Pro que der e vier

       B
Onde você estiver
              F#
Onde quer que você vá
        C#m
Eu quero te dizer
        E9            A9
Que eu nunca vou te deixar

INTRO + RIFF  ( B   F#   C#m   E ) 2x

             B
Quando tudo parecer
                 F#
Que não tem mais solução
            C#m
Olhe dentro de você
       E
Siga o seu coração

             B
Faça o que te faz sorrir
         F#
O que te faz acreditar
              C#m
Você tem que ser feliz
      E
Você tem que lutar

G#m               F#          E
          Nunca é tarde pra mudar
                  G#m     F#/Bb     E
          Saiba que comigo sempre pode contar
 
REFRÃO + RIFF
           B
Sempre que você quiser
          F#
Sempre que precisar
         C#m
Eu quero estar ai
        E
Pro que der e vier

       B
Onde você estiver
              F#
Onde quer que você vá
        C#m
Eu quero te dizer
             E           A9
            Que eu nunca vou te deixar 

SOLO  ( B   F#   C#m   E ) 2x

REFRÃO
           B
Sempre que você quiser
          F#
Sempre que precisar
         C#m
Eu quero estar ai
        E
Pro que der e vier

       B
Onde você estiver
              F#
Onde quer que você vá
        C#m
Eu quero te dizer
                    E              B                 F#
            Que eu nunca vou te deixar           Uouohooo

       C#m                     E             B                      F#
Eu quero te dizer que      eu nunca vou te deixar              Uouohooo

         C#m          B/D#          E
Eu quero te dizer               que eu nunca vou te deixar

RIFF INTRODUÇÃO RÁPIDA
        B                    F#                         C#m                     E
e |----------------------------------------------------------------------------------------------|
B|----------------------------------------------------------------------------------------|
G|-----4---6---8----------3---4---6----------6-8-9---8---6---------9---8---6------8/6/4---|
D|----------------------------------------------------------------------------------------|
A|-----2---4---6----------1---2---4----------4-6-7---6---4---------7---6---4------6/4/2---|
E |----------------------------------------------------------------------------------------------|
        B                    F#                         C#m                     E
e |-----------------------------------------------------------------------------------------------|
B|-----------------------------------------------------------------------------|
G|-----4---6---8----------3---4---6----------6-8-9---8---6---------9---8---11---|
D|-----------------------------------------------------------------------------|
A|-----2---4---6----------1---2---4----------4-6-7---6---4---------7---6---9---|
E |-----------------------------------------------------------------------------------------------|

RIFF REFRÃO
        B                   F#              C#m                        E
e |-----------------------------------------------------------------------|
B|-------------------------------------------------------------|
G|------4------4--6--8--6--------6--8--9----------9--8--6--4---|
D|-------------------------------------------------------------|
A|------2------2--4--6--4--------4--6--7----------7--6--4--2---|
E |-----------------------------------------------------------------------|

    B                   F#              C#m                       E         A9 (Continua com SOLO...)
e |----------------------------------------------------------------------------------------------------------------|
B|--------------------------------------------------------------------------------------------------|
G|--4------4--6--8--6--------6--8--9----------9--8--6--4--------6----8--6--8--9---14--14--14----11---|
D|--------------------------------------------------------------------------------------------------|
A|--2------2--4--6--4--------4--6--7----------7--6--4--2--------4----6--4--6--7---12--12--12----9---|
E |----------------------------------------------------------------------------------------------------------------|

...SOLO

e |-------------------------------------------------------------------------------------------------------------|
B|---------------------------------------------------------------12-----14b(16)-14b(16)--12---|
G|----11---11---11---11---11*--11*------11---11---11--------11h13-----------------------------|
D|--------------------------------------------------------------------------------------------|
A|--------------------------------------------------------------------------------------------|
E |--------------------------------------------------------------------------------------------------------------|

e |--------------------------14-------------14--------------14------------14------------------------|
B|-------12----14b(16)------14b(16)------14b(16)------14b(16)------14b(16)----12---|
G|--11h13--------------------------------------------------------------------------|
D|---------------------------------------------------------------------------------|
A|---------------------------------------------------------------------------------|
E |------------------------------------------------------------------------------------------------------|

e |------------------------------------------------------------------------------------------------------|
B|----12----12----12-----12--12----------11---12---14------------14(16)--12--12----------|
G|----11----11----11-----11--11------------------------------------------------14--14*---|
D|---------------------------------------------------------------------------------------|
A|---------------------------------------------------------------------------------------|
E |------------------------------------------------------------------------------------------------------|

e |---12---11-------------------------------------------|
B|----------------12----------------------|
G|------------------11-----9-----8--------|
D|-----------------------------------9*---|
A|----------------------------------------|
Composição de Caio / Chapola / Marcola / Riké
Colaboração e revisão:
  • Alexandre Silva
799 exibições
    • ½ Tom
    • A
    • Bb
    • B
    • C
    • Db
    • D
    • Eb
    • E
    • F
    • F#
    • G
    • Ab
  • Adicionar à lista

    0 comentários

    Ver todos os comentários

    Conseguiu tocar?

    0 Tocaram 0 Ainda não

    Grave um vídeo tocando Nunca Vou Te Deixar e nos envie!

    00:00 / 00:00
    Outros vídeos desta música
    Repetir Qualidade Automático
    Outros vídeos desta música
    00:00 / 00:00
    Automático

    Cifra Club Pro

    Aproveite o Cifra Club com benefícios exclusivos e sem anúncios
    Cifra Club Pro
    Aproveite o Cifra Club com benefícios exclusivos e sem anúncios
    OK