Cifra Club

22-11

O Teatro Mágico

Cifra: Principal
exibições 22.356
Tom: E
(1ª parte)
E|----------------------------------0-------------|
B|----------0--------0------------0--0------------|
G|--------2---2----2--2---------2-----------------|
D|------6------6---------------6------------------| (2x)
A|----------------------------4-------------------|
E|----4-------------------------------------------|

(2ª parte) (fazendo pestana fica mais fácil)
E|------------------------------------------------|
B|----4-------2-----4-------4p5-------------------|
G|----4-------2-----4-------2---------------------|
D|----4-----2-------4-----2-----------------------| (2x)
A|--0-----0-------0-----0-------------------------|
E|------------------------------------------------|

  (3ª parte) [E9]
E|--------0---------------------------------------|
B|----------0-------------------------------------|
G|-----1-------------1----------------------------|
D|-----4------4------4----------------------------|
A|---2------------2-------------------------------|
E|-0------------0---------------------------------|

(1ª parte)

(2ª parte)

E|--------0-2-0-----0-2---------------------------|
B|------------------------------------------------|
G|---------------1--------------------------------|
D|---------------2--------------------------------|
A|-----2------------------------------------------|
E|--0---------------------------------------------|

(4ª parte)
E|------------------------------------------------|
B|------------------------------------------------|
G|--4444444--66-----------------------------------|
D|--6666666--77-----------------------------------| (2x)
A|--6666666--77-----------------------------------|
E|--4444444--55-----------------------------------|

(5ª parte)
E|------------------------------------------------|
B|------------------------------------------------|
G|----1------6p8-----------1-----4----------------|
D|----2------7p9-----------2-----4----------------| (2x)
A|----2------4p6-----------2----------------------|
E|--0-----0-------------0-------0-----------------|

E|------------------------------------------------|
B|------------------------------------------------|
G|----1------6p8-----------1------8p6-------------|
D|----2------7p9-----------2------9p7-------------| (5x)
A|----2------4p6-----------2------6p4-------------|
E|--0-----0-------------0-------0-----------------|

(6ª parte)
E|------------------------------------------------|
B|--------0---------------------------------------|
G|------2---2-------------------------------------|
D|----6-------6-----------------------------------| (4x)
A|------------------------------------------------|
E|--0---------------------------------------------|

(7ª parte)
E|------------------------------------0-----------|
B|-----------0----------0-----------0---0---------|
G|---------2--2------2---2------2-----------------|
D|------6----------6-----------6------------------| (2x)
A|----------------------------4-------------------|
E|----4-----------4-------------------------------|

E|------------------------------------------------|
B|-------------0----------------------------------|
G|---------2------2-------------------------------|
D|------6------------6----------------------------| (4x)
A|------------------------------------------------|
E|----0-------------------------------------------|

(repete tudo)
Acordes para:
    Composição: Fernando AnitelliColaboração e revisão:

    0 comentários

      mostrar mais comentários

      Conseguiu tocar?

      6tocaram0ainda não

      Grave um vídeo tocando 22-11 e mande pra gente!

      00:00 / 00:00
      outros vídeos desta música
      repetirqualidadeautomática
      Outro vídeos desta música
        00:00 / 00:00
        automática
        OK