Cifra Club

Realejo

O Teatro Mágico

Cifra: Principal
exibições 227.049
Tom: D
         D   A/C#     Bm7      G6/9     D  A/C#      Bm7      G6/9
E|----2--|---|-------------|------||----2-|-5--|-2-----2h3h2--|--------|
B|----3--|-5-|-3-----2h3h2-|---2h3||----3-|-3--|-3----3-----2-|---2h3--|
G|--2---2|-2-|-2----2-----2|------||--2--2|-2--|-2---2--------|--------|
D|-------|---|-----4-------|------||------|----|--------------|--------|
A|-5-----|-4-|-2--2--------|--2---||-5----|-4--|-2--2---------|--2-----|
E|-------|---|-------------|-3----||------|----|--------------|-3------|


D         A      Bm  G
Será que a sorte virá num realejo?
D            A        Bm
Trazendo o pão da manhã
G
A faca e o queijo
Em9           G       G#°
Ou talvez um beijo teu
D      A
Que me empreste alegria
Bm      G       D A
Que me faça juntar
Bm      G        D A
Todo o resto do dia
Bm  G          D    A  Bm  G
Meu café, meu jantar
A             G   Gm
Meu mundo inteiro
D     A   G     D        A        Bm  G
Que é tão fácil de enxergar e chegar
F#m    Bm      C#7         G
Nenhum medo que possa enfrentar
F#m   Bm       C#7       G  Gm
Nem segredo que possa contar
D  A  Bm  G
Enquanto é tão cedo
D   A  Bm  G
Tão cedo

Bm       A      F#m   G
Enquanto for um berço meu
Bm       A      F#m   G
Enquanto for um terço meu
Bm A     F#m  G
Serás vida, bem vinda
Bm A     F#m  G
Serás viva, bem viva
D A  Bm  G
Em mim

D           A       Bm G
Será que a noite virá num vilarejo?
D            A       Bm   G
Vejo a ponte que levará ao que desejo
Em
Admiro o que há de lindo
                    G  Gm     D  A  Bm  G
e o que há de ser você

Bm     A      F#m   G7+
Enquanto for um berço meu
Bm     A      F#m   G7+
Enquanto for um terço meu
Bm  A    F#m  G
Serás vida, bem vinda
Bm  A    F#m  G
Serás viva, bem viva
D  A  Bm  G
Em mim

E|-17-17------------------------|
B|-------15-15--15-15/17--------|
G|-----------------------14-14--|
D|------------------------------|
A|------------------------------|
E|------------------------------|
Acordes para:

    0 comentários

      mostrar mais comentários

      Conseguiu tocar?

      9tocaram1ainda não

      Grave um vídeo tocando Realejo e mande pra gente!

      00:00 / 00:00
      outros vídeos desta música
      repetirqualidadeautomática
      Outro vídeos desta música
        00:00 / 00:00
        automática
        OK