Enviar cifraEntrar

Realejo

O Teatro Mágico

Cifra: Principal
exibições 217.188
Tom: E

        E   B/D#     C#m7      A6/9     E  B/D#      C#m7      A6/9
E|----4--|---|-------------|------||----4-|-7--|-4-----4h5h4--|--------|
B|----5--|-7-|-5-----4h5h4-|---4h5||----5-|-5--|-5----5-----4-|---4h5--|
G|--4---4|-4-|-4----4-----4|------||--4--4|-4--|-4---4--------|--------|
D|-------|---|-----6-------|------||------|----|--------------|--------|
A|-7-----|-6-|-4--4--------|--4---||-7----|-6--|-4--4---------|--4-----|
E|-------|---|-------------|-5----||------|----|--------------|-5------|


E         B      C#m  A
Será que a sorte virá num realejo?
E            B        C#m
Trazendo o pão da manhã
A
A faca e o queijo
F#m9           A       A#°
Ou talvez um beijo teu
E      B
Que me empreste alegria
C#m      A       E B
Que me faça juntar
C#m      A        E B
Todo o resto do dia
C#m  A          E    B  C#m  A
Meu café, meu jantar
B             A   Am
Meu mundo inteiro
E     B   A     E        B        C#m  A
Que é tão fácil de enxergar e chegar
G#m    C#m      D#7         A
Nenhum medo que possa enfrentar
G#m   C#m       D#7       A  Am
Nem segredo que possa contar
E  B  C#m  A
Enquanto é tão cedo
E   B  C#m  A
Tão cedo

C#m       B      G#m   A
Enquanto for um berço meu
C#m       B      G#m   A
Enquanto for um terço meu
C#m B     G#m  A
Serás vida, bem vinda
C#m B     G#m  A
Serás viva, bem viva
E B  C#m  A
Em mim

E           B       C#m A
Será que a noite virá num vilarejo?
E            B       C#m   A
Vejo a ponte que levará ao que desejo
F#m
Admiro o que há de lindo
                    A  Am     E  B  C#m  A
e o que há de ser você

C#m     B      G#m   A7+
Enquanto for um berço meu
C#m     B      G#m   A7+
Enquanto for um terço meu
C#m  B    G#m  A
Serás vida, bem vinda
C#m  B    G#m  A
Serás viva, bem viva
E  B  C#m  A
Em mim

E|-19-19------------------------|
B|-------17-17--17-17/19--------|
G|-----------------------16-16--|
D|------------------------------|
A|------------------------------|
E|------------------------------|

  • 1
  • 2
  • 3
  • 4
  • 5
  • 6
  • 7
  • 8
  • 9
  • 10
  • 11
  • 12
    Acordes para:

      0 comentários

        mostrar mais comentários

        Conseguiu tocar?

        7tocaram0ainda não

        Grave um vídeo tocando Realejo e mande pra gente!

        00:00 / 00:00
        outros vídeos desta música
        repetirqualidadeautomática
        • automática
        Outro vídeos desta música
          00:00 / 00:00
          automática
          • automática
          Acordes para:violão e guitarra
          dificuldadeexibiçõescontribuições
          1 versão de Guitar Proformatodownloadscontribuição
          fecharplay/pause subir/descer velocidade
            acordes
            fechar
            OK
            Feedback