Cifra Club

Ana e o Mar

O Teatro Mágico

Cifra: Versão 2 (violão e guitarra)
Selo Cifra Club: esta cifra foi revisada para atender aos critérios oficiais da nossa Equipe de Qualidade.
tom: Db
(sem capotraste)

   C#  
e|----------------------|-------------------|
B|----------------------|-------------------|
G|---------10-11-10-----|---------10-11-10--| (2x)
D|------11----------11--|------11-----------|
A|---11-----------------|---11--------------|
E|--9-------------------|--9----------------|

    C# A#m G#
e|-----------------4--|
B|------6--6~4-----4--|
G|--10---------6-5----| (4x)
D|--------------------|
A|---------6----------|
E|--9---8-------------|

Veio de manhã molhar     Abriu os braços devagar  Sol veio avisar que de
os pés na primeira onda  e se entregou ao vento   noite ele seria lua

    C# A#m G#              C# A#m G#4               C# A#m G#                      
e|-----------------4----|---------4--4-----------|-----------------4---|
B|------6--6~4-----4----|------6-----------------|------6--6~4-----4---|
G|--10---------6-5------|--10-----6--------------|--10---------6-5-----|
D|----------------------|---------6--------------|---------------------|
A|---------6------------|---------6--6-----------|---------6-----------|
E|--9---8---------------|--9---8-----------------|--9---8--------------|

D#m           C#    B
Pra poder iluminar, Ana, o céu e o Mar


Sol e vento              Vento e sol              Sol e chuva           Chuva e sol
dia de casamento         luz apagada no farol     casamento de viúva    casamento de espanhol

    C# A#m G#              C# A#m G#4               C# A#m G#             C# A#m G#4
e|-----------------4----|---------4--4-----------|-----------------4---|---------4--4---------|
B|------6--6~4-----4----|------6-----------------|------6--6~4-----4---|------6---------------|
G|--10---------6-5------|--10-----6--------------|--10---------6-5-----|--10-----6------------|
D|----------------------|---------6--------------|---------------------|---------6------------|
A|---------6------------|---------6--6-----------|---------6-----------|---------6--6---------|
E|--9---8---------------|--9---8-----------------|--9---8--------------|--9---8-----=---------|

D#m                             B
Ana aproveitava os carinhos do mundo
                       F#
Os quatro elementos de tudo
                 A#7
Deitada diante do mar
     B                              F#
Que apaixonado entregava as conchas mais belas
                    G#7
Tesouros de barcos e velas
                       A#7
Que o tempo não deixou voltar...

F#               C#                  B      
Onde já se viu o mar apaixonado por uma menina?
F#               C#          B
Quem já conseguiu dominar o amor?
F#              C#             B
Por que é que o mar não se apaixona por uma lagoa?
F#                   C#                  B
Porque a gente nunca sabe de quem vai gostar

F#          C#     B
Ana e o mar, mar e Ana
F#                          C#
Histórias que nos contam na cama
B
Antes da gente dormir
D#m         C#     B
Ana e o mar, mar e Ana
     F#                  C#
Todo sopro que apaga uma chama
   B                         C#
Reacende o que for pra ficar

D#m                B
Quando Ana entra n'água
           F#
O sorriso do mar - drugada
                     A#7
Se estende pro resto do mundo
B                            F#
Abençoando ondas cada vez mais altas
                      G#7                        A#7           
Barcos com suas rotas e as conchas que vem avisar
B    C#    F#  B C#      F#
Desse novo amor, Ana e o mar...
Outros vídeos desta música
    51.818 exibições
      • ½ Tom
      • A
      • Bb
      • B
      • C
      • Db
      • D
      • Eb
      • E
      • F
      • F#
      • G
      • Ab
    • Adicionar à lista

    Afinação da cifra

    Afinador online

      0 comentários

      Ver todos os comentários

      Conseguiu tocar?

      5Tocaram0Ainda não

      Grave um vídeo tocando Ana e o Mar e nos envie!

      Toque também

      1. Imagem do artista Nando ReisPor Onde Andei Nando Reis
      2. Imagem do artista A Banda Mais Bonita da CidadeOração A Banda Mais Bonita da Cidade
      3. Imagem do artista Tiago IorcAmei Te Ver Tiago Iorc
      4. Imagem do artista 5 a SecoPra Você Dar o Nome 5 a Seco

      Entre para o Cifra Club PRO

      Tenha acesso a benefícios exclusivos no App e no Site

      • Chega de anúncios

      • Badges exclusivas

      • Mais recursos no app do Afinador

      • Atendimento Prioritário

      • Aumente seu limite de lista

      • Ajude a produzir mais conteúdo

      Cifra Club Pro

      Aproveite o Cifra Club com benefícios exclusivos e sem anúncios
      Cifra Club Pro
      Aproveite o Cifra Club com benefícios exclusivos e sem anúncios
      OK