Cifra Club

Durma Medo Meu

O Teatro Mágico

Cifra: Principal (violão e guitarra)
Selo Cifra Club: esta cifra foi revisada para atender aos critérios oficiais da nossa Equipe de Qualidade.
tom: Ab
E|--11-8-11-----------11-8-11-8-11---------
B|----9----9--11-8-11---9---------11-8-11--
G|--------------8-------------------8------
D|-----------------------------------------
A|-----------------------------------------
E|-----------------------------------------

E|-------------------------------
B|-------------------------------
G|--1-3~5~3-3~5~3----------------
D|----------------1 3~5~3-3~5~3--
A|-------------------------------
E|-------------------------------

E|-------------------------
B|-------------------------
G|--1-3~5~3-3~5~3---------- 
D|----------------1 3~5~3--
A|-------------------------
E|-------------------------

G#         D#
Todo o chão se abre
G#           D#
No escuro, se acostuma
Fm         C#   Bbm         C#
Às vezes a coragem é como quando a nova lua
G#    D#
Somos a discórdia
G#   D#
E o perdão
Fm      C#     Bbm        C#      D#7
E nos esquecemos da cor que tinha o céu, assim
 Fm     C
Como a saudade
  C#        G#
Ou uma frase perdida
D#     G#
Durma, Medo Meu
Durma, Medo Meu

E|-------------------------------
B|-------------------------------
G|--1-3~5~3-3~5~3----------------
D|----------------1 3~5~3-3~5~3--
A|-------------------------------
E|-------------------------------

E|-------------------------
B|-------------------------
G|--1-3~5~3-3~5~3---------- 
D|----------------1 3~5~3--
A|-------------------------
E|-------------------------

G# D#
Hmmm, não
G#        D#
Às vezes um "não sei"
Fm              C#
Janela, madrugada, luz tardia
Bbm       C#
E o medo nos acorda
G#            D#
Pára e bate o coração
G#      D#
Em pura disritmia
Fm      C#
O medo amedronta o medo
 Bbm        C#       D#7
Vela, madrugada, dia, assim 
 Fm      C
Como a saudade
 C#        G#
Ou uma frase perdida
D#      G#
Durma, Medo Meu
D#      G#
Durma, Medo Meu
00:00 / 00:00
Outros vídeos desta música
Repetir
Outros vídeos desta música
60.990 exibições
    • ½ Tom
    • A
    • Bb
    • B
    • C
    • Db
    • D
    • Eb
    • E
    • F
    • F#
    • G
    • Ab
  • Adicionar à lista

Afinação da cifra

Afinador online

    0 comentários

    Ver todos os comentários

    Conseguiu tocar?

    5 Tocaram 1 Ainda não

    Grave um vídeo tocando Durma Medo Meu e nos envie!

    Toque também

    1. Imagem do artista Nando Reis Por Onde Andei Nando Reis
    2. Imagem do artista A Banda Mais Bonita da Cidade Oração A Banda Mais Bonita da Cidade
    3. Imagem do artista Tiago Iorc Amei Te Ver Tiago Iorc
    4. Imagem do artista 5 a Seco Pra Você Dar o Nome 5 a Seco

    Entre para o Cifra Club PRO

    Tenha acesso a benefícios exclusivos no App e no Site

    • Chega de anúncios

    • Mais recursos no app do Afinador

    • Atendimento Prioritário

    • Aumente seu limite de lista

    • Ajude a produzir mais conteúdo

    00:00 / 00:00

    Cifra Club Pro

    Aproveite o Cifra Club com benefícios exclusivos e sem anúncios
    Cifra Club Pro
    Aproveite o Cifra Club com benefícios exclusivos e sem anúncios
    OK