Cifra Club

O Mérito e o Monstro

O Teatro Mágico

Cifra: Principal
exibições 46.136
Tom: C
(intro) Am7 Em7/9+

E|----------------------
B|------10--------------
G|-----9--10-9-7-------- (4x)
D|-7-10---------10-9-7--
A|----------------------
E|----------------------

E|------8---------------8------------
B|-------10-8----------8-10-8--------
G|-----9-----10-9-7--9-------10-9-7--
D|-7-10------------10----------------
A|-----------------------------------
E|-----------------------------------

E|-------8------------
B|------8-10-8--------
G|- --9-------10-9-7-- (2x)
D|--10----------------
A|--------------------
E|--------------------

D|---------
A|---7-6-5- (4x)
E|--5-5-5--

Am7
O metrô parou
O metro aumentou
                 Em7
Tenho medo de termômetro

Am7              Em7
Tenho medo de altura
 Dm7          Am7
Tenho altura de um metro e tanto
 F                 F#°
Me mato pra não morrer               (2x)

Am7
Minha condição, minha condução
                Em7
Meu minuto de silêncio
Am7                Em7
Os meus minutos mal somados
 Dm7            Am7
Sadomasoquismo são

 F                 F#°
Meu trabalho mais que forçado
 Am  Fmaj7 C9       G
Morrendo comigo na mão     (2x)

(refrão)

   Am   F   C       G
Morrendo comigo na mão (2x)

(Am G#m G F)
Pra dilatarmos a alma
Temos que nos desfazer
Pro nos tornarmos imortais
A gente tem que aprender a morrer
Com aquilo que fomos,
E com aquilo que somos nós.
Am             F
Com aquilo que fomos
      C                G
E com aquilo que somos nós

(guitarra com Wah Wah)
E|--5----------5------------
B|--5----------5------------
G|--5----------5------------ (2x)
D|--7---5-4----7---5--4-----
A|--7---3-2----7---3--2-----
E|--5----------5------------

(Am F C G) (4x)

(final)
E|-------------------------------------------------------------------------
B|-------------------------------------------------------------------------
G|-------------------------------------------9-----------------------------
D|-------------------------------2-4-2-7--9--7---2-4-2-7---2-2-2--2-2-2----
A|--7--------------7-------------0-2-3-5--7------0-2-3-5---2-2-2--2-2-2----
E|--5--0-3-5-3-0-3-5-0-3-5-3-0-3---------------------------0-0-0--0-0-0----

E|--------------------------------------------
B|-------------------------------------------
G|-------------------------------------------
D|--2-4-2-7--9----------5-6-7---------5-6-7--
A|--0-2-3-5--7------5-7-----------5-7--------
E|--------------5-8-----------5-8------------

(obs: para este final, preste bastante atenção nos compassos da música
pois eles variam conforme segue a bateria)
Acordes para:
    Composição: Fernando AnitelliColaboração e revisão:
    • Rafael Reis
    • William Zocolaro
    • João Neto

    0 comentários

      mostrar mais comentários

      Conseguiu tocar?

      2tocaram0ainda não

      Grave um vídeo tocando O Mérito e o Monstro e mande pra gente!

      00:00 / 00:00
      outros vídeos desta música
      repetirqualidadeautomática
      Outro vídeos desta música
        00:00 / 00:00
        automática
        OK