Cifra Club

Sina Nossa

O Teatro Mágico

Cifra: Principal
exibições 48.241
Tom: F# (com acordes na forma de B) Capotraste na 7ª casa
(B F# B F#) 2x

*Intro (solos para banjo/bandolin ou violão com capotraste na casa 7):


e|---4-4-5-7-------5~7-5-4-2----------------------

B| ------------4-5-7-------------5-4-5-7---------- 
G| -----------------------------------------------
D| -----------------------------------------------

e| ---4-4-5-7-------5~7-5-4-2---------------------
B| ------------4-5-7-------------5-4-------------- 
G| -----------------------------------------------
D| -----------------------------------------------


B         F#
Mia senhora,
             B
És de lua e beleza
F#            G#m7     
És um pranto do avesso
D#m            E
És um anjo in verso
F#          G#m7
Em presença e peso
D#m            E
Atrevo-me atravesso
F#            (B F# B F#)
Pra perto do peito teu

B          F#         B
Teu sagrado e tua besteira
       F#         G#m7
Teu cuidado e tua maneira
D#m             E
De discordar da dor
F#          G#m7
De descobrir abrigo
D#m          E
Entre tanto amor
F#         G#m7
Entretanto a dúvida
 D#m         E
A música que casou
   F#                  (B F# B F#) 2x
Um certo surto que não veio

B              F#
Há uma alma em mim,
                 B 
Há uma calma que não condiz...
F#        G#m7
Com a nossa pressa!
D#m              E
Com resto que nos resta
F#                     G#m7
Lamentavelmente eu sou assim...

          E
Um tanto disperso
               B
Às vezes desapareço
                E
Pois depois recomeço
                B
Mas antes me esqueço

(E B)


e|---5-4-5--5-4-5--5-4-5---


E
Nossa sina é se ensinar...
B
A sina nossa é...
E
Nossa sina é se ensinar...
B
A sina nossa...

E
Minha senhora diz:
B
Bons ventos para nós
E
Parece essência
B                     
Sopra sobre nós...

(B F# B F#)

(1x)
e| ---0-8-7-8--0-8-7-8--8~10-7--

(4x)
e| ----0-5-0-4-0-2-0-0----------
B| ----5-5-5-5-5-5-5------------
G| ----------------------------
D| ----------------------------

(2x)
e| -----------------------------
B| ----4-4-4/5-7----------------

(1x)
e| ---4-4-5-7--------9~11-9-7--
B| ------------4-5-7----------- 
G| ----------------------------
D| ----------------------------
Acordes para:
    Composição: Fernando AnitelliColaboração e revisão:
    • Fernando Marques
    • MARCOS JUNIOR
    • Amoracyr Nuñez

    0 comentários

      mostrar mais comentários

      Conseguiu tocar?

      1tocaram0ainda não

      Grave um vídeo tocando Sina Nossa e mande pra gente!

      00:00 / 00:00
      outros vídeos desta música
      repetirqualidadeautomática
      Outro vídeos desta música
        00:00 / 00:00
        automática
        OK