Cifra Club

Todos Enquantos

O Teatro Mágico

Cifra: Principal (violão e guitarra)
Selo Cifra Club: esta cifra foi revisada para atender aos critérios oficiais da nossa Equipe de Qualidade.
tom: D

Trecho 1
               D/G           D4/A          D/G           D
E|------------------------------------------------------------------------------|
B|------------------------------------------------------------------------------|
G|---------2--4----------7--6----------2--4----------9--11----------------------|
D|---------0--0----------0--0----------0--0-------------------------------------|
A|------------------------------------------------------9-----------------------|
E|---------2--3----------7--5----------2--3----------9--10----------------------|

Trecho 2

            G       Bbm5-   D6/B    A6     G6       A5(9)
E|------------------------------------------------------------------------------|
B|-----------------5---------------5-------3-------5----------------------------|
G|---------4-------6-------7-------6-------4-------4----------------------------|
D|---------0---------------0-------4-------2------------------------------------|
A|-------------------------------------------------0----------------------------|
E|---------3-------6-------7-------5-------3------------------------------------|


Introdução:repetir o trecho 1 duas vezes ou a sua sequência de acordes. 


(Trecho 1)


D/G    D4/A            D/G
     Todos meus tantos

   D      D/G      D4/A
São teus

      D/G          D
Todos enquantos

   
D/G     D4/A           D/G
     Todos meus santos

 D        D/G      D4/A
Ateus!

      D/G                       D
Desde quando nosso encantamento feneceu

D/G     D4/A      D/G      D


D/G     D4/A        D/G
     Finjo-me anjo,

 D        D/G      D4/A
Orfeu

      D/G                   D
Alivia o alvoroço com o cuidado teu

D/G     D4/A      D/G      D


(Trecho 2)


G                  Bbm5-
     Diz quanto é tanto?

           D6/B A6
Eu não sei nem bem

    G6   A5(9)
Por onde procurar


G                  Bbm5-
     Há um ledo engano

          D6/B A6
Em não querer ver

      G6   A5(9)
Que é dom: recomeçar!


Pausa para instrumental: repetir o trecho 1 duas vezes


(trecho 1)


D/G    D4/A            D/G
     Todos meus tantos

   D      D/G      D4/A
São teus

      D/G          D
Todos enquantos

D/G     D4/A      D/G      D


D/G    D4/A            D/G
     Finjo-me drama

  D      D/G      D4/A
Romeu

      D/G                              D
Faz de conta que ainda somos quem nos escreveu!

D/G     D4/A      D/G      D


(Trecho 2)

  G           Bbm5-
     Torna-te quem tu és:

   D6/B    A6
Canção; clarão

    G6     A5(9)
Crescente; Transcender

  G               Bbm5-
     Não arrisque crer 

        D6/B       A6
na intuição que em vão

    G6     A5(9)
Nos faz desvanecer

Encerramento: repetir o trecho 1 por 4 vezes.
00:00 / 00:00
Outros vídeos desta música
Repetir
Outros vídeos desta música
3.663 exibições
    • ½ Tom
    • A
    • Bb
    • B
    • C
    • Db
    • D
    • Eb
    • E
    • F
    • F#
    • G
    • Ab
  • Adicionar à lista

Afinação da cifra

Afinador online

    0 comentários

    Ver todos os comentários

    Conseguiu tocar?

    0 Tocaram 0 Ainda não

    Grave um vídeo tocando Todos Enquantos e nos envie!

    Toque também

    1. Imagem do artista Nando Reis Por Onde Andei Nando Reis
    2. Imagem do artista Tiago Iorc Amei Te Ver Tiago Iorc
    3. Imagem do artista A Banda Mais Bonita da Cidade Oração A Banda Mais Bonita da Cidade
    4. Imagem do artista 5 a Seco Pra Você Dar o Nome 5 a Seco

    Entre para o Cifra Club PRO

    Tenha acesso a benefícios exclusivos no App e no Site

    • Chega de anúncios

    • Mais recursos no app do Afinador

    • Atendimento Prioritário

    • Aumente seu limite de lista

    • Ajude a produzir mais conteúdo

    00:00 / 00:00

    Cifra Club Pro

    Aproveite o Cifra Club com benefícios exclusivos e sem anúncios
    Cifra Club Pro
    Aproveite o Cifra Club com benefícios exclusivos e sem anúncios
    OK