Cifra Club

Transição

O Teatro Mágico

Cifra: Principal (violão e guitarra)
Selo Cifra Club: esta cifra foi revisada para atender aos critérios oficiais da nossa Equipe de Qualidade.
tom: B
Intro 4x:  B C# B C# Bb

E|------------------------------------------------------
B|------------------------------------------------------
G|--------------------------------------------3-3-------
D|---1--------1-------1----------------1----------------
A|------4---2-----4------4---2----4---------------------
E|------------------------------------------------------

   Riff 1 na musica quase inteira ( B C# B C# Eb Bb F#)
E|------------------------------------------------------
B|------------------------------------------------------
G|------------------------------------------------------
D|---1--------1----------1----------------1--------4----
A|------4---2-----4--4------4---2----4-------1----------
E|------------------------------------------------------

( B C# B C# Eb Bb F#)
Apreciar os riscos e suposições
Manifestar brandura e mansidão
Assegurar acessibilidade
E preservar coragem em transição

E          Abm  C#m        Ab
Se enunciar...repleta e intecta!
E       C#m       Abm     A
Apta a habitar todo lugar
E            Bb B
Se aflorar...bela!

 Intro 4x: B C# B C# Bb
E|------------------------------------------------------
B|------------------------------------------------------
G|--------------------------------------------3-3-------
D|---1--------1-------1----------------1----------------
A|------4---2-----4------4---2----4---------------------
E|------------------------------------------------------

( B C# B C# Eb Bb F#)
Assim que for embora
Perpectuar a história
Desvalidar o improvável
Desdenhar do inconcebível

E        B     Bb
Ocupar o ar das horas!
B       E        B         C#m       A
Plenas, serenas, inéditas e autênticas!
E
Revidar!
Bb B
Bela!

Final (E Abm Bb) abafado

Riff 2 junto com o abafado
E|--------------------------
B|--------------------------
G|--------------------------
D|--------------------------
A|----------------4---1-----
E|----0---2---4---------2---

E    Abm     Bb
Desperta em nós
Bb
Nova aurora ao coração!
E    Abm            Bb
Me ensina a perder... medo
E     Abm    Bb
Alcança a voz!
Bb
Acordar de prontidão!
E    Abm  C#m
Anunciar!

   Riff 3 (E C#m)
E|-----------------------------------------------------------
B|-----------------------------------------2-----------------
G|------------1---4---3----------------1-------3---1----4----
D|----2---4---------------4----1---2-------------------------
A|-----------------------------------------------------------
E|-----------------------------------------------------------

E                                             C#m
“Milagres acontecem quando a gente vai à luta!”
00:00 / 00:00
Outros vídeos desta música
Repetir
Outros vídeos desta música
7.619 exibições
    • ½ Tom
    • A
    • Bb
    • B
    • C
    • Db
    • D
    • Eb
    • E
    • F
    • F#
    • G
    • Ab
  • Adicionar à lista

Afinação da cifra

Afinador online

    0 comentários

    Ver todos os comentários

    Conseguiu tocar?

    1 Tocaram 1 Ainda não

    Grave um vídeo tocando Transição e nos envie!

    Toque também

    1. Imagem do artista Nando Reis Por Onde Andei Nando Reis
    2. Imagem do artista A Banda Mais Bonita da Cidade Oração A Banda Mais Bonita da Cidade
    3. Imagem do artista Tiago Iorc Amei Te Ver Tiago Iorc
    4. Imagem do artista 5 a Seco Pra Você Dar o Nome 5 a Seco

    Entre para o Cifra Club PRO

    Tenha acesso a benefícios exclusivos no App e no Site

    • Chega de anúncios

    • Mais recursos no app do Afinador

    • Atendimento Prioritário

    • Aumente seu limite de lista

    • Ajude a produzir mais conteúdo

    00:00 / 00:00

    Cifra Club Pro

    Aproveite o Cifra Club com benefícios exclusivos e sem anúncios
    Cifra Club Pro
    Aproveite o Cifra Club com benefícios exclusivos e sem anúncios
    OK