Cifra Club

Aprenda

Ai, Ai, Como Eu Me Iludo

O Terno

Cifra: Principal (violão e guitarra)
Tom: G#
Intro: Bb

Eb                  Fm
Ai, ai, como eu me iludo
G#7                Eb
Dessa vez eu viajei
                  Fm
Meu Deus confundi tudo
G#7                 Eb
Nossa como eu vacilei

        C#               G#
Porque eu já fiz isso milhares de vezes
     D#                  F7
Como é que eu nunca aprendi
C#                G#                  Fm      Eb
A não gostar das pessoas tão rápido assim

E|------------------------------|
B|------------------------------|
G|------------------------------|
D|------------1h3-1-------------|
A|-3--(3)--3---------3/6--------|
E|-1---4------------------------|

E|-------------------|
B|-------------------|
G|-------8-----------|
D|-(8)---------------| 
A|--8h10-------------|
E|-------------------|

E|------------------------------|
B|------------------------------|
G|------------------------------|
D|------------1h3-1-------------|
A|-3--(3)--3---------3/6--------|
E|-1---4------------------------|

E|---------------------|
B|---------------------|
G|---------------------|
D|--8-8-8-8-8-8-8-8----|
A|--6-6-6-6-6-6-6-6----|
E|---------------------|

E|------------------------------|
B|------------------------------|
G|------------------------------|
D|------------1h3-1-------------|
A|-3--(3)--3---------3/6--------|
E|-1---4------------------------|

Eb                  Fm
Ai, ai, como eu me iludo
G#7                Eb
Dessa vez eu viajei
                  Fm
Meu Deus confundi tudo
G#7                 Eb
Nossa como eu vacilei

        C#               G#
Porque eu já fiz isso milhares de vezes
     D#                  F7
Como é que eu nunca aprendi
C#                G#                  Fm      Eb
A não gostar das pessoas tão rápido assim
  Cm
Eu pensei que ia mudar
                  Eb
E que estava bem claro
Cm                                Eb
Depois dos anos e anos da ultima vez
G#                                   Cm
Mas quando vejo me pego fazendo até planos
Fm
De apresentar pro meus pais
G#                G#7
To vendo filme demais

( Eb  Fm  G#7  Eb ) 2x

Eb              Fm
Af, como eu me iludo
G#7                Eb
Dessa vez eu viajei
                  Fm
Meu Deus confundi tudo
G#7                 Eb
Nossa como eu vacilei

        C#               G#
Porque eu já fiz isso milhares de vezes
     D#                  F7
Como é que eu nunca aprendi
C#                G#                  Fm     Eb
A não gostar das pessoas tão rápido assim

C#                G#                  Fm     Eb
A não gostar das pessoas tão rápido assim

C#                G#                  Fm     Eb
A não gostar das pessoas tão rápido assim

E|------------------------------|
B|------------------------------|
G|------------------------------|
D|------------1h3-1-------------| 3x
A|-3--(3)--3---------3----------|
E|-1---4------------------------|

( Eb )
Composição de Tim Bernardes
Colaboração e revisão:
  • Joao Vicente
  • Ramon Pacheco
  • Joelson Miller
66.594 exibições
  • Simplificar cifra
    • ½ Tom
    • A
    • Bb
    • B
    • C
    • Db
    • D
    • Eb
    • E
    • F
    • F#
    • G
    • Ab
  • Adicionar à lista

    0 comentários

    Mostrar mais comentários

    Conseguiu tocar?

    28 Tocaram 3 Ainda não

    Grave um vídeo tocando Ai, Ai, Como Eu Me Iludo e mande pra gente!

    00:00 / 00:00
    outros vídeos desta música
    repetir qualidade Automático
    Outros vídeos desta música
    00:00 / 00:00
    Automático

    Cifra Club Pro

    Aproveite o Cifra Club com benefícios exclusivos e sem anúncios
    Cifra Club Pro
    Aproveite o Cifra Club com benefícios exclusivos e sem anúncios
    OK