Cifra Club

Blue Dream (fingerstyle)

Os Cavaleiros Do Zodíaco

Cifra: Principal (violão e guitarra)
Selo Cifra Club: esta cifra foi revisada para atender aos critérios oficiais da nossa Equipe de Qualidade.
tom: Dm


E|-----------0--------0-------------------------------0-------------------|
B|-----------0--------------3----------1----3---------3--3---1------------|
G|----2------0-------------------------0----------2---2--0---2------------|
D|-----------------2--------2---2-----------------2---0-------------------|
A|----0----------2--------------------------2-----------------------------|
E|-----------0-------------------------0-----------------0----------------|

E|--------0---------------------------------------------------------------|
B|------------3----0------------------------------------------------------|
G|----2-------0----------0---2--------------------------------------------|
D|---------------------------0--------------------------------------------|
A|------------------------------------------------------------------------|
E|-----------------3------------------------------------------------------|

E|-----------0--------0---------------------------------------------------|
B|-----------0--------------3----------1----3-----------------------------|
G|----2------0-------------------------0----------2-----------------------|
D|-----------------2--------2---2-----------------2-----------------------|
A|----0----------2--------------------------2-----------------------------|
E|-----------0-------------------------0----------------------------------|

E|------------------------------------------------------------------------|
B|-------------------------0-----1--3--0----------------------------------|
G|-------------------2----------------------0---2-------------------------|
D|-----3-------5-----0--------------------------0-------------------------|
A|------------------------------------------------------------------------|
E|----------------------------3-----3-------------------------------------|

E|-------------------------1---0-----0------1---0-------------------------|
B|-------1----3----0--------------3---------3-----3----3--1------3---0----|
G|--2-----------------0----2----------------------2----0------------------|
D|-------------------------------------------------------------------0----|
A|--0-----------2--------------3--------3-----------0-----0--0------------|
E|------------------------------------------------------------------------|

E|----------0---0----1----5----3--1-----------------5----3----1--0--------|
B|------3------------3---------3-----3-----3------------------------1-3---|
G|--2--------------------------------0------------------------------0-----|
D|--0---------------------------------------------------------------------|
A|--------------4--------------------------1--------0------------0----0---|
E|------------------------------------------------------------------------|

E|--------0-0---1---5----3--1-------5--3--1-0-----------------------------|
B|-----3--------3--------3----3--3-------------1----3---------------------|
G|--2-------------------------0--3------------------2---------------------|
D|--0-------------------------------------0---------0---------------------|
A|----------4---------2-------------0-------------------------------------|
E|------------------------------------------------------------------------|
Outros vídeos desta música
12.161 exibições
    • ½ Tom
    • Am
    • Bbm
    • Bm
    • Cm
    • C#m
    • Dm
    • Ebm
    • Em
    • Fm
    • F#m
    • Gm
    • G#m
  • Adicionar à lista

Afinação da cifra

Afinador online

    0 comentários

    Ver todos os comentários

    Entre para o Cifra Club PRO

    Tenha acesso a benefícios exclusivos no App e no Site

    • Chega de anúncios

    • Mais recursos no app do Afinador

    • Atendimento Prioritário

    • Aumente seu limite de lista

    • Ajude a produzir mais conteúdo

    Cifra Club Pro

    Aproveite o Cifra Club com benefícios exclusivos e sem anúncios
    Cifra Club Pro
    Aproveite o Cifra Club com benefícios exclusivos e sem anúncios
    OK