Cifra Club

Blue Forever (solo)

Os Cavaleiros Do Zodíaco

Cifra: Principal (violão e guitarra)
Selo Cifra Club: esta cifra foi revisada para atender aos critérios oficiais da nossa Equipe de Qualidade.
tom: E
E|------------------------------------------------------------------------
B|------------------------------------------------------------------------
G|--5-0-3--5-0-3--5-0-3------5-0-3----------------------------------------

E|------------------------------------------------------------------------
B|---------5-------------8--5-------------------5---------8-----5---------
G|--5-7-5------5--7----------------5--7--5----------5--7------------------

E|------------------------------------------------------------------------
B|-----------5--------------8----5------------5---------------------------
G|--5---7-------5-----7-7----------7----5/2-------5---5/7-----5---7---5---

E|------------------------------------------------------------------------
B|--------5---------------5----------------5-5--5555----------------5-----
G|--5--7--------5--7------------7----5-------------------5-----7----------

E|------------------------------------------------------------------------
B|-----------5----------------5--6-----------5-----6-----8----------------
G|---5---7-------7-----5--------------------------------------------------

E|------------------------------------------------------------------------
B|---8----8---6---5----8----------8-----6----5---8------------------------
G|--------------------------------------------------------5---------------

E|------------------------------------------------------------------------
B|----5---6--5-----------------5-------------5------5------5-----8--------
G|----------------7---5---7--------7---5--------7------7------------------

E|--------------------------------5-----7---------8-----------------------
B|---8--------6---5---8-----8-------------------------------6-------------
G|------------------------------------------------------------------------

E|---8-----8----5----7----------------------------------------------------
B|----------------------------6------5------------------------------------
G|------------------------7-----------------------------------------------

E|------------------------------------------------------------------------
B|------------------------------------------------------------------------
G|---5-0-3----5-0-3----5-0-3-5-3-5----------------------------------------

00:00 / 00:00
Outros vídeos desta música
Repetir
Outros vídeos desta música
17.719 exibições
    • ½ Tom
    • A
    • Bb
    • B
    • C
    • Db
    • D
    • Eb
    • E
    • F
    • F#
    • G
    • Ab
  • Adicionar à lista

Afinação da cifra

Afinador online

    0 comentários

    Ver todos os comentários

    Entre para o Cifra Club PRO

    Tenha acesso a benefícios exclusivos no App e no Site

    • Chega de anúncios

    • Mais recursos no app do Afinador

    • Atendimento Prioritário

    • Aumente seu limite de lista

    • Ajude a produzir mais conteúdo

    00:00 / 00:00

    Cifra Club Pro

    Aproveite o Cifra Club com benefícios exclusivos e sem anúncios
    Cifra Club Pro
    Aproveite o Cifra Club com benefícios exclusivos e sem anúncios
    OK