Cifra Club

Mime's Harp

Os Cavaleiros Do Zodíaco

Cifra: Principal (violão e guitarra)
Selo Cifra Club: esta cifra foi revisada para atender aos critérios oficiais da nossa Equipe de Qualidade.
tom: G
violão 1
   dedilha durante toda a musica.
    
     Em                        G#m                                      F#m
e|-------0------|      e|--------------|     e|--------------|    e|-----------|    e|-----------|
b|-----0---0----|      b|-------4------|     b|------3-------|    b|-----2-----|    b|-----1-----|
G|---0-------0--|      G|-----4---4----|     G|----4---4-----|    G|---2---2---|    G|---2---2---|
D|-2------------|      D|---4-------4--|     D|---4-----4----|    D|--2-----2--|    D|--2-----2--|
A|--------------|      A|-6------------|     A|--5-----------|    A|-4---------|    A|-3---------|
E|--------------|2x    E|--------------|2x   E|--------------|2x  E|-----------|2x  E|-----------|2x

     Em                                             Em                Em
e|--------------|     e|---------------|     e|-------0------|    e|---0-------|
b|-------0------|     b|-------4-------|     b|-----0---0----|    b|---0-------|
G|-----0---0----|     G|-----4---4-----|     G|---0-------0--|    G|---0-------|
D|---2-------0--|     D|---4-------4---|     D|-2------------|    D|---2-------|
A|-2------------|     A|-6-------------|     A|--------------|    A|-----------|
E|--------------|2x   E|---------------|2x   E|--------------|    E|-----------|  

violão 2

e|------0--3--2--2----------5--3--2--0--0--2--3--3/5--7--8--5--3---3--2---------------------|
b|-0--0------------0---0--0--------------------------------------0-----0--0--2--4--4/5----5-|

e|--------12--15--14--14-------------17--15--14--12--12--14--15--15/17--19--20--17--15------|
b|-12--12----------------12--12--12---------------------------------------------------------|

e|----15--14--------------------------------------------------------------------------------|
b|-12--------12--12--14--16--16/17----17----------------------------------------------------|
Outros vídeos desta música
15.804 exibições
    • ½ Tom
    • A
    • Bb
    • B
    • C
    • Db
    • D
    • Eb
    • E
    • F
    • F#
    • G
    • Ab
  • Adicionar à lista

Afinação da cifra

Afinador online

    0 comentários

    Ver todos os comentários

    Entre para o Cifra Club PRO

    Tenha acesso a benefícios exclusivos no App e no Site

    • Chega de anúncios

    • Mais recursos no app do Afinador

    • Atendimento Prioritário

    • Aumente seu limite de lista

    • Ajude a produzir mais conteúdo

    Cifra Club Pro

    Aproveite o Cifra Club com benefícios exclusivos e sem anúncios
    Cifra Club Pro
    Aproveite o Cifra Club com benefícios exclusivos e sem anúncios
    OK