Cifra Club

Opening - The Lost Canvas

Os Cavaleiros Do Zodíaco

Cifra: Principal (violão e guitarra)
Selo Cifra Club: esta cifra foi revisada para atender aos critérios oficiais da nossa Equipe de Qualidade.
tom: D
E |-9/11----9----4----9/11--9--11--12--11-11/4/11----9---4-----------7---4~--4------------
B |----------------------------------------------------------7-9-----------------7--4--2--
G |---------------------------------------------------------------------------------------
D |---------------------------------------------------------------------------------------
A |---------------------------------------------------------------------------------------
E |---------------------------------------------------------------------------------------

E |--------------------------------------------------
B |--------------------------------------------------
G |-3-3-3--------------------------------------------
D |-3-3-3--------------------------------------------   (3x)
A |-1-1-1--------------------------------------------
E |--------------------------------------------------

Outros vídeos desta música
17.922 exibições
    • ½ Tom
    • A
    • Bb
    • B
    • C
    • Db
    • D
    • Eb
    • E
    • F
    • F#
    • G
    • Ab
  • Adicionar à lista

Afinação da cifra

Afinador online

    0 comentários

    Ver todos os comentários

    Entre para o Cifra Club PRO

    Tenha acesso a benefícios exclusivos no App e no Site

    • Chega de anúncios

    • Mais recursos no app do Afinador

    • Atendimento Prioritário

    • Aumente seu limite de lista

    • Ajude a produzir mais conteúdo

    Cifra Club Pro

    Aproveite o Cifra Club com benefícios exclusivos e sem anúncios
    Cifra Club Pro
    Aproveite o Cifra Club com benefícios exclusivos e sem anúncios
    OK