Cifra Club

String Nocturne

Os Cavaleiros Do Zodíaco

Cifra: Principal (violão e guitarra)
Selo Cifra Club: esta cifra foi revisada para atender aos critérios oficiais da nossa Equipe de Qualidade.
tom: D
E|--------------------------------------------------------|
B|--------------------------------------------------------|
G|--2----------2-----------2-------0-----2-------0--------|
D|--0---2-3----0---2-3-----0----3--------0----3-----------|
A|----0----------0-----------0-------------0--------------|
E|--------------------------------------------------------|

E|--------------------------------------0-1---0---------------------|
B|-----------------------------------3-------------3----------------|
G|--2-2-------2-3-2--2-3-2---------2-----------------2--3--------0--|
D|----0---2-3--------------0---2-3---3----0---2-3--3-0---------0----|
A|------0----------------------0------------0----------------1------|
E|------------------------------------------------------3--3--------|

E|----------------------------------0-1-3-0-----------------------------|
B|----------------------------------------------------------------------|
G|--0--------0-2-0--0-2-0---------2---------2-0------0-2--------2-3-2---|
D|---------0--------------------0---------2---2-3--3----0---2-3---------|
A|-------1--------------------1---------0---4---5---------0-------------|
E|--3--3----------------3---3-------------------------------------------|
                                    
E|---------------------------0-1---0------5-3--------0-1-3-------3-5-3---|
B|-------------------------3------------3--------------------------------|
G|--2-3-2--2-3-2--------2------------------------------------------------|
D|--------------0---2-3----3---0---2-3--3---------0------------0---------|
A|----------------0--------------0--------------1------------1-----------|
E|------------------------------------------3-3----------3-3-------------|

E|--3-5-3--3-5-3----------0-1-3------------------------------------|
B|----------------------------------------3------------------------|
G|--------------------------------2-3-2---2------------------------|
D|--------------------0---------2---------0---2-3----3-2-0---2-3-2-|
A|------------------1---------0-------------0--------------0-------|
E|-------------3--3------------------------------------------------|

00:00 / 00:00
Outros vídeos desta música
Repetir
Outros vídeos desta música
3.739 exibições
    • ½ Tom
    • A
    • Bb
    • B
    • C
    • Db
    • D
    • Eb
    • E
    • F
    • F#
    • G
    • Ab
  • Adicionar à lista

Afinação da cifra

Afinador online

    0 comentários

    Ver todos os comentários

    Entre para o Cifra Club PRO

    Tenha acesso a benefícios exclusivos no App e no Site

    • Chega de anúncios

    • Mais recursos no app do Afinador

    • Atendimento Prioritário

    • Aumente seu limite de lista

    • Ajude a produzir mais conteúdo

    00:00 / 00:00

    Cifra Club Pro

    Aproveite o Cifra Club com benefícios exclusivos e sem anúncios
    Cifra Club Pro
    Aproveite o Cifra Club com benefícios exclusivos e sem anúncios
    OK