Cifra Club

A Melhor Coisa Que Eu Já Fiz

Ozéias de Paula

Cifra: Principal
exibições 87.390
Tom: G
Tom: G

   G                  C           G D      G   C  G
E|----------------------------------------------------|
B|--------------------------8-7-----------------------|
G|-------7-9-7--7------9--------9-7-------------------|
D|--9-10----------9------10---------10-9-7------------|
A|------------------10---------------------10-7-10----|
E|----------------------------------------------------|


          G                  Bm
De Tanta Coisa, Que Andei Fazendo
          C                G
De Quase Todas, Me Arrependi
          G7        C
Mas Ouve Uma, Especial
           G     D         G
Foi a Mais Certa, Que Escolhi

(refrão)
         G                Em
A Melhor Coisa, Que eu Já Fiz
        Am                     D
Em Toda Minha Vida, Salvou-me Por Um Triz
        G     G7          C     Cm
Em Aceitar Jesus, Sinceramente Foi
         G    D            G
A Melhor Coisa, Que eu Já Fiz


   G                  C           G D     G    C  G
E|----------------------------------------------------|
B|--------------------------8-7-----------------------|
G|-------7-9-7--7------9--------9-7-------------------|
D|--9-10----------9------10---------10-9-7------------|
A|------------------10---------------------10-7-10----|
E|----------------------------------------------------|


        G                Bm
Coisa Erradas, Andei Fazendo
         C           G
Na Condição, De Pecador
                  G7          C
Mas Quando Achei-me,  Desfalecendo
        G      D            G
Tomei a Decisão, Que Me Salvou

(refrão)
         G                Em
A Melhor Coisa, Que eu Já Fiz
        Am                     D
Em Toda Minha Vida, Salvou-me Por Um Triz
        G     G7          C     Cm
Em Aceitar Jesus, Sinceramente Foi
         G    D            G
A Melhor Coisa, Que eu Já Fiz
Acordes para:
    Colaboração e revisão:
    • Daniel Cabral
    • GIOVANE SILVA

    0 comentários

      mostrar mais comentários

      Conseguiu tocar?

      1tocaram0ainda não

      Grave um vídeo tocando A Melhor Coisa Que Eu Já Fiz e mande pra gente!

      00:00 / 00:00
      outros vídeos desta música
      repetirqualidadeautomática
      Outro vídeos desta música
        00:00 / 00:00
        automática
        OK