Cifra Club

Aprenda

Happy Song

Pagoda

Cifra: Principal (violão e guitarra)
Tom: A#
e|---------------------------------------------|\
B|---------------------------------------------| \
G|---------------------------------------------|  x4
D|---6-----6-----7-----7-----6-----6---22222-1-|  |
A|---6---6---6---7---7---7---6---6---6-22222-1-| /
E|-6---6-------7---7-------6---6-------22222-1-|/

e|----------------|\
B|----------------| \
G|----------------|  x2
D|-556666-22222-1-|  |
A|-556666-22222-1-| /
E|-556666-22222-1-|/

e|------------------------------------------------------|\
B|------------------------------------------------------| \
G|------------------------------------------------------|  x2
D|---6-----6-----6-----6-----7-----7-----4-----4--------|  |
A|---6---6---6---6---6---6---7---7---7---4---4---4------| /
E|-4---4-------6---6-------7---7-------4---4------------|/


Thats all i have for now
no promises on the accuracy 
Composição de Michael Pitt / Pagoda
2.563 exibições
    • ½ Tom
    • A
    • Bb
    • B
    • C
    • Db
    • D
    • Eb
    • E
    • F
    • F#
    • G
    • Ab
  • Adicionar à lista

    0 comentários

    Mostrar mais comentários

    Conseguiu tocar?

    2 Tocaram 0 Ainda não

    Grave um vídeo tocando Happy Song e mande pra gente!

    00:00 / 00:00
    outros vídeos desta música
    repetir qualidade Automático
    Outros vídeos desta música
    00:00 / 00:00
    Automático
    OK