Cifra Club

Horizons Intro

Parkway Drive

Cifra: Principal (violão e guitarra)
Tom: G
hey peepz... this is my first tab.. well.. the first one posted on UG..
horizons... mad song.. good album.. their old material i rekon is better thou..
i cbb bothered to tab all out jst yet so i jst have the acoustic intro and the hevy 
chords, and will post the outro lead sweeping and the tapping later.. im a lazi man (paki!)


 acoustic guitar
 b tuning (c f b e g c) < if u dont get this tuning then try it in standard first..
|-7----7-----10---5----5-----5---3-----3-----5----5-----5-----0---------|
|---5----5----------3----3---------1-----1----------3-----3-------------|
|-----4----4----------2----2---------0-----0----------2-----2-----------|
|-------------------------------------------------0---------------------|
|-----------------2--------------3--------------------------------------|
|-0---------------------------------------------------------------------|

repeat as necessary


distortd intro
dropped b

|---------------------------------|
|---------------------------------|
|-------"so it begins"--4-5-7-----|
|-2`-2`---------------2-4-5-7-----|
|-2`-2`---------------2-2-3-5-----|
|-2`-2`---------------2-----------|


until nxt time...
peace
exibições 1.009
Acordes para:

    0 comentários

    mostrar mais comentários

    Conseguiu tocar?

    0 tocaram 0 ainda não

    Grave um vídeo tocando Horizons Intro e mande pra gente!

    00:00 / 00:00
    outros vídeos desta música
    repetir qualidade Automático
    Outros vídeos desta música
    00:00 / 00:00
    Automático
    OK