Cifra Club

Como Nossos Pais, Nos Aguentam

Pedra Letícia

Cifra: Principal
exibições 264.723
Tom: A
Intro: A B/A D A E

 A
Quando um filho vai nascer
   B/A                        D
Os pais vem orgulhosos pra dizer
          A    E
É um garotão
A
Ralam pra pagar os carnês
    B/A                       D
Das aulas de inglês de karatê
       A    E
E natação

Dm                        A
Meu filho vai ser um estudante aplicado
Dm                      A
Vai virar médico, engenheiro, advogado
C                      G
E vou mantê-lo longe dessa confusão
Dm                               E
Bebida, boteco, pandeiro e violão

A B/A D A E (2x)

Solinho:
e|--------------------------------------------------|
B|-10---10-10-10--12-10--------12-12-12-12--14-12---|
G|-----------------------9--------------------------|

e|---------------------------------------------------------|
B|--15-15-15-15-15-15-15--14-12----12-14-12----------------|
G|------------------------------14-------------------------|

e|----------------------------------------------|
B|-10-10-10-10--12-10------12-12-12-12--14-12---|
G|---------------------9------------------------|

e|--------------------12-------------------------------------|
B|--15-15-15-15-15-15----15-14-12----12-14-12----------------|
G|--------------------------------14-------------9/11-9------|

A B/A D A E (2x)

A
Mas pra decepção
B/A
Geral dos nossos pais
D                            A     E
Papel caneta e sala de aula nunca mais

A                  B/A
A faculdade nunca foi a nossa praia
D                             A            E
vamos montar uma banda que depois a gente ensaia

Dm               A
E começamos a tocar o violão
Dm                   A
Aquele ali foi insistir na percussao
C                     G
E só assim as 'muié' vão nos dar moral
Dm                               E
Porque nós somos feio a dar com pau

       A
       Nós somos músicos
R      B/A
e      Não temos nada
f      D                          A          E
r      Ralamos a mão e os dedos até de madrugada
ã      A
o      Nós somos músicos
       B/A
       Que grande bosta
       D                                A            E
       Impressionante e ver como é que ocêis ainda gosta

A B/A D A E (2x)

Dm                      A
Meu filho pega as suas coisas e vê se some
Dm                         A
Pois ser artista é pedir pra morrer de fome
C                         G
Sei que nesse ramo rola droga pra chuchu
Dm
Só falta vocês dizer que tão dando...
E
Shooooww por aí!

       A
       Nós somos músicos
R      B/A
e      Não temos nada
f      D                          A          E
r      Ralamos a mão e os dedos até de madrugada
ã      A
o      Nós somos músicos
       B/A
       Que grande bosta
       D                                A            E
       Impressionante e ver como é que ocêis ainda gosta
Acordes para:
    Colaboração e revisão:

    0 comentários

      mostrar mais comentários

      Conseguiu tocar?

      45tocaram0ainda não

      Grave um vídeo tocando Como Nossos Pais, Nos Aguentam e mande pra gente!

      00:00 / 00:00
      outros vídeos desta música
      repetirqualidadeautomática
      Outro vídeos desta música
        00:00 / 00:00
        automática
        OK