Cifra Club

Eu Sou Pedreiro

Pedra Letícia

Cifra: Principal (violão e guitarra)
tom: Ab
Primeira Parte:

 G#                      A#m
Baby, seu pai é pipoqueiro
       D#
É que você pra mim
   C#        G#
Parece um estouro

                       A#m
Baby, meu mapa de pirata
        D#
Tem um "X" em você
    C#       G#
Que é meu tesouro

   C#      D#              Cm  Fm
Baby, vem ser minha mulher
     A#m
Dou casa e comida
     G#      G#7
Dou tudo de bom

   C#  D#             Cm  Fm
Baby, meu contra-filé
      A#
Deixa eu martelar
     D#
Pra virar mignon


Refrão:

G#
   Sou o pedreiro 
        C#         D#
Que sua obra necessita
G#                       C#        D#
   Me deixa ser a tampa da sua marmita
Fm
   Vamos sair
           A#
Tomar um chopp e um banho quentinho
C#                     D#
   Vem por a sua areia    

No meu caminhãozinho


Solo 1: G#  C#  D#
        G#  C#  D#

E|-----------------------------------------------------|
B|-----------------------------------------------------|
G|-5-5-5-5h6-5-----------------------------------------|
D|-------------8-6-6---6-8-8/10--8---------------------|
A|-------------------8---------------------------------|
E|-----------------------------------------------------|

E|-----------------------------------------------------|
B|-----------------------------------------------------|
G|-5-5-5-5h6-5-----------------------------------------|
D|-------------8-6-6---6-8-8/10--8\6-------------------|
A|-------------------8---------------------------------|
E|-----------------------------------------------------|


Segunda Parte:

 G#                         A#m
Baby, sou um pedreiro parente
    D#              C#         G#
Se for pra você minha obra é prima
                          A#m
Baby, seu corpo é um bagageiro
 D#            C#          G#
Baby, você tá com tudo em cima

   C#        D#           Cm  Fm
Baby, minha BR cento e um
   A#m            G#          G#7
Você é um pedaço de mal caminho
 C#       D#            Cm  Fm
Baby já trouxe o urucum
      A#
Tal qual um Peri
          D#
Vou besuntar seu corpinho


Refrão:

G#
   Sou o pedreiro 
        C#         D#
Que sua obra necessita
G#                       C#        D#
   Me deixa ser a tampa da sua marmita
Fm
   Vamos sair
           A#
Tomar um chopp e um banho quentinho
C#                     D#
   Vem por a sua areia    

No meu caminhãozinho


Solo 2: G#  C#  D#
        G#  C#  D#
        Fm  A#  C#  D#

E|-----------------------------------------------------|
B|-----------------------------------------------------|
G|-5-5-5-5h6-5-----------------------------------------|
D|-------------8-6-6---6-8-8/10--8---------------------|
A|-------------------8---------------------------------|
E|-----------------------------------------------------|

E|-----------------------------------------------------|
B|-----------------------------------------------------|
G|-5-5-5-5h6-5-----------------------------------------|
D|-------------8-6-6---6-8-8/10--8\6-------------------|
A|-------------------8---------------------------------|
E|-----------------------------------------------------|

E|---------------------------------------------13------|
B|------9-11-11b13r11-9----11b13r11-9----11b13----11b13|
G|-8/10-----------------10------------10---------------|
D|-----------------------------------------------------|
A|-----------------------------------------------------|
E|-----------------------------------------------------|

E|-----------------------------------------------------|
B|-b13r11p9--------------------------------------------|
G|----------10-8---------------------------------------|
D|-----------------------------------------------------|
A|-----------------------------------------------------|
E|-----------------------------------------------------|
   

Terceira Parte:

 C#        D#               Fm
Baby, me chama uma ambulância
      A#m
É que a suas coxa 
       G#         G#7
Me causaram um infarto
 C#        D#             Cm  Fm
Baby, seu vestido é lindo
     A#m              D#
Mas fica melhor, no chão do meu quarto


Refrão:

 G#
   Sou o pedreiro 
        C#         D#
Que sua obra necessita
G#                       C#        D#
   Me deixa ser a tampa da sua marmita
Fm
   Vamos sair
           A#
Tomar um chopp e um banho quentinho
C#                     D#
   Vem por a sua areia    

No meu caminhãozinho

G#
   Sou o pedreiro 
        C#         D#
Que sua obra necessita
G#                       C#        D#
   Me deixa ser a tampa da sua marmita
Fm
   Vamos sair
           A#
Tomar um chopp e um banho quentinho
C#                     D#
   Vem por a sua areia    

No meu caminhãozinho


Solo 3: G#  C#  D#
        G#  C#  D#
        Fm  A#  C#  D#

E|-----------------------------------------------------|
B|--------9--------------------------------------------|
G|------8---8h10----10p8-------------------------------|
D|-8/10------------------10-8---------8-8h10-8---------|
A|----------------------------11-8-11------------------|
E|-----------------------------------------------------|

E|-----------------------------------------------------|
B|--------9--------------------------------------------|
G|------8---8h10----10p8-------------------------------|
D|-8/10------------------10-8---------8-8h10-8---------|
A|----------------------------11-8-11------------------|
E|-----------------------------------------------------|

E|-----------------------------------------------------|
B|-------11b13r11p9-11b13r11p9-------------------------|
G|-8/10~-----------------------10----------------------|
D|-----------------------------------------------------|
A|-----------------------------------------------------|
E|-----------------------------------------------------|

E|-----------------------------------------------------|
B|-11b13r11p9-11b13r11p9--------9--11--11/13-----------|
G|-----------------------9--11-------------------------|
D|-----------------------------------------------------|
A|-----------------------------------------------------|
E|-----------------------------------------------------|
00:00 / 00:00
Outros vídeos desta música
Repetir
Outros vídeos desta música
Composição de Fabiano Cambota
Colaboração e revisão:
84.617 exibições
    • ½ Tom
    • A
    • Bb
    • B
    • C
    • Db
    • D
    • Eb
    • E
    • F
    • F#
    • G
    • Ab
  • Adicionar à lista

    0 comentários

    Ver todos os comentários

    Conseguiu tocar?

    21 Tocaram 1 Ainda não

    Grave um vídeo tocando Eu Sou Pedreiro e nos envie!

    Entre para oCifra Club PRO

    Tenha acesso a benefícios exclusivos no App e no Site

    • Chega de anúncios

    • Prioridade de compra em lançamentos

    • Mais recursos no app do Afinador

    • Atendimento Prioritário

    • Descontos nos produtos Cifra Club

    • Ajude a produzir mais conteúdo

    00:00 / 00:00
    Capítulos
    • Tocando a música
    • Dicas Iniciais / Equipamentos
    • Acordes da música
    • Tocando a Parte A
    • Ritmo da Parte A
    • Tocando o Refrão
    • Ritmo do Refrão
    • Solo 1
    • Solo 2
    • Solo 3
    • Encerramento
    • Ficha Técnica

    Cifra Club Pro

    Aproveite o Cifra Club com benefícios exclusivos e sem anúncios
    Cifra Club Pro
    Aproveite o Cifra Club com benefícios exclusivos e sem anúncios
    OK