Cifra Club

Voámos em Contramão

Pedro Abrunhosa

Cifra: Principal (violão e guitarra)
Selo Cifra Club: esta cifra foi revisada para atender aos critérios oficiais da nossa Equipe de Qualidade.
tom: Ab (forma dos acordes no tom de F) Capotraste na 3ª casa
Intro: C Am 3x

 C Am           C                   Am                   C                 Am
E|-------------0---3---------------0---3----------------0---3-------------0---3-------|
B|------1--3----------------1--3---------1-------1--3---------------1--3---------1----|
G|---0-------------------0--------------------0------------------0--------------------|
D|------------------------------------------------------------------------------------|
A|------------------------------------------------------------------------------------|
E|------------------------------------------------------------------------------------|

C
Leva-me ao fim da montanha
Am
Dá-me do vinho da Vida
C
Estende o Céu, faz a cama
Am
Onde me escondo da ferida
   F
E agora…
           C
Somos mais fortes que o chão.


Mostra-me a foz do teu Rio
Vem à Nascente do meu
Afasta a dor e o perigo
Porque a distância doeu
E agora…
Voámos em Contramão.


Pré-refrão:
Dm                       Bb
E há-de haver outro lugar
                   F
E palavras pra dizer
                           C
Quando a Terra abraça o Mar
                        Dm
É como um Filho a nascer

                           Bb
E há-de haver outra maneira
                         F
de contar a quem não sabe
                        C
Se me dás a Vida inteira
                     F
Porque só vivi metade.


Refrão:
F                    Bb
Leva-me de volta a casa
        C             F
Abre as portas do jardim
                    Bb
Deita-me na tua cama
           C         F
Diz que sim, diz que sim.


F                    Bb
Leva-me de volta a casa
        C            F
Abre as portas do jardim
                    Bb
Deita-me na tua cama
           C         F
Diz que sim, diz que sim.

 C Am           C                   Am                   C                 Am
E|-------------0---3---------------0---3----------------0---3-------------0---3-------|
B|------1--3----------------1--3---------1-------1--3---------------1--3---------1----|
G|---0-------------------0--------------------0------------------0--------------------|
D|------------------------------------------------------------------------------------|
A|------------------------------------------------------------------------------------|
E|------------------------------------------------------------------------------------|


Segue por este caminho
Apanha Luas de Prata
Um Beijo é o nosso destino
Beijo que fere e não mata
E agora…
Somos mais corpo que dantes.


Não temos frio no fogo,
Trazes por dentro o verão,
Vejo-me em ti e descubro
Somos luz, sombras não.
E agora…
Voámos em contramão.


Pré-refrão:
Dm                       Bb
E há-de haver outro lugar
                   F
E palavras pra dizer
                           C
Quando a Terra abraça o Mar
                        Dm
É como um Filho a nascer

                           Bb
E há-de haver outra maneira
                         F
de contar a quem não sabe
                        C
Se me dás a Vida inteira
                     F
Porque só vivi metade.


Refrão:
F                    Bb
Leva-me de volta a casa
        C             F
Abre as portas do jardim
                    Bb
Deita-me na tua cama
           C         F
Diz que sim, diz que sim.


F                    Bb
Leva-me de volta a casa
        C            F
Abre as portas do jardim
                    Bb
Deita-me na tua cama
           C         F
Diz que sim, diz que sim.


 Solo: F                Bb                F                 C               Dm
E|-----------------------------------------------------------------------|
B|---9-8-6-4----------9-8-6-4-----------9-8-6-4----------9-8-6-4---------|
G|-----------5-6-8------------5-6-5-------------5-6-8------------5-3-----|
D|-------------------------------------------------------------------6---|
A|-----------------------------------------------------------------------|
E|-----------------------------------------------------------------------|

      Dm         Bb                F                 C                F
E|------------------------------------------------------------------------|
B|---9-8-6-4----------9-8-6-4-----------9-8-6-4----------9--11-11-13-9----|
G|-----------5-6-8------------5-6-5-------------5-6-8---------------------|
D|------------------------------------------------------------------------|
A|------------------------------------------------------------------------|
E|------------------------------------------------------------------------|


Refrão:
F                    Bb
Leva-me de volta a casa
        C             F
Abre as portas do jardim
                    Bb
Deita-me na tua cama
           C         F
Diz que sim, diz que sim.


F                    Bb
Leva-me de volta a casa
        C             F
Abre as portas do jardim
                    Bb
Deita-me na tua cama
           C         F
Diz que sim, diz que sim.


F                    Bb
Leva-me de volta a casa
        C             F
Abre as portas do jardim
                    Bb
Deita-me na tua cama
           C         F
Diz que sim, diz que sim.


Solo Final: F    Bb C  F Bb C F

       F                        Bb             C             F
E|------------------------------------------------------------------|
B|---\13-14--13--11--9--11--13--14----14--13--11--9--8--------------|
G|-------------------------------------------------------10--8------|
D|------------------------------------------------------------------|
A|------------------------------------------------------------------|
E|------------------------------------------------------------------|

      F                     Bb                       C      F
E|------------------------------------------------------------------|
B|---14--13--11--9--11--13--14-------14--14--11--9--11--13--9-------|
G|------------------------------------------------------------------|
D|------------------------------------------------------------------|
A|------------------------------------------------------------------|
E|------------------------------------------------------------------|

      F       Bb      F       C       F       B        Dm
E|---------------------------------------------------16--16---------|
B|---13--13--16--16--13--13--9--9----13--13--16--16-----------------|
G|------------------------------------------------------------------|
D|------------------------------------------------------------------|
A|------------------------------------------------------------------|
E|------------------------------------------------------------------|
Outros vídeos desta música
    7.628 exibições
      • ½ Tom
      • A
      • Bb
      • B
      • C
      • Db
      • D
      • Eb
      • E
      • F
      • F#
      • G
      • Ab
    • Adicionar à lista

    Afinação da cifra

    Afinador online

      0 comentários

      Ver todos os comentários

      Entre para o Cifra Club PRO

      Tenha acesso a benefícios exclusivos no App e no Site

      • Chega de anúncios

      • Badges exclusivas

      • Mais recursos no app do Afinador

      • Atendimento Prioritário

      • Aumente seu limite de lista

      • Ajude a produzir mais conteúdo

      Cifra Club Pro

      Aproveite o Cifra Club com benefícios exclusivos e sem anúncios
      Cifra Club Pro
      Aproveite o Cifra Club com benefícios exclusivos e sem anúncios
      OK