Cifra Club

Another day in paradise

Phil Collins

Cifra: Versão 6 (violão e guitarra)
Selo Cifra Club: esta cifra foi revisada para atender aos critérios oficiais da nossa Equipe de Qualidade.
tom: C
-------0--0---2--0--------------------------------------------------------------------------------------------
-----------------------4----2----0---2------------------------------------------------------------------------
----------------------------------------------------------------------------------------------------------------
----------------------------------------------------------------------------------------------------------------
---- -----------------------------------------------------------------------------------------------------------
----------------------------------------------------------------------------------------------------------------

-------0--0---2--0-------------------------------------------------------------------------------------------
-----------------------4----2----0----------------------------------------------------------------------------
---------------------------------------2-----------------------------------------------------------------------
----------------------------------------------------------------------------------------------------------------
---- -----------------------------------------------------------------------------------------------------------
----------------------------------------------------------------------------------------------------------------

Outros vídeos desta música
    4.535 exibições
    • Simplificar cifra
      • ½ Tom
      • A
      • Bb
      • B
      • C
      • Db
      • D
      • Eb
      • E
      • F
      • F#
      • G
      • Ab
    • Adicionar à lista

    Afinação da cifra

    Afinador online

      0 comentários

      Ver todos os comentários

      Entre para o Cifra Club PRO

      Tenha acesso a benefícios exclusivos no App e no Site

      • Chega de anúncios

      • Badges exclusivas

      • Mais recursos no app do Afinador

      • Atendimento Prioritário

      • Aumente seu limite de lista

      • Ajude a produzir mais conteúdo

      Cifra Club Pro

      Aproveite o Cifra Club com benefícios exclusivos e sem anúncios
      Cifra Club Pro
      Aproveite o Cifra Club com benefícios exclusivos e sem anúncios
      OK