Cifra Club

Aprenda

Hold On Till May

Pierce The Veil

Cifra: Principal (violão e guitarra)
tom: A
(0:00 - 0:35)
E|-------0----------0---------------------------|
B|----------0----------0-------4----------4-----|
G|--------------------------------4----------4--|
D|--6h7--------6h7--------4h6--------4h6--------|
A|----------------------------------------------|
E|----------------------------------------------|

(0:36 0:40)
"I'm going crazy"
E|-----|
B|-----|
G|--9--|
D|--9--|
A|--7--|
E|-----|

(1:06 - 1:13)
E|-------0----------0-----------------|
B|----------0----------0--------------|
G|------------------------9--8--------|
D|--6h7--------6h7--------9--8--9-----|
A|------------------------7--6--9-----|
E|------------------------------9-----|

(Bend aos 1:17)

(1:14 - 1:19)
E|-----------------------------------------------9b10--9--7-----------------|
B|--------------------------------------------------------------------------|
G|--9--8--9--8--9--8--9--9--8-----9--8-----9--8--------------9--8--9--8-----|
D|-----------------------------9--------9-----------------------------------|
A|--------------------------------------------------------------------------|
E|--------------------------------------------------------------------------|

(1:19 - 1:24)
E|----------------------------------|
B|----------------------------------|
G|----------------------------------|
D|--7--------7--7--------7--7-----7-| (x2)
A|--7--------7--7--------7--7-----7-|
E|--7--7--7--7--7--7--7--7--7--7--7-|

E|----------|
B|----------|
G|----------|
D|--8b9--8--|
A|----------|
E|----------|

(1:25 - 1:32)
E|-----------------------------------|
B|-----------------------------------|
G|-----------------------------------|
D|--6--------6--6--------6--6-----6--| (x2)
A|--6--------6--6--------6--6-----6--|
E|--6--6--6--6--6--6--6--6--6--6--6--|

E|-----------|
B|-----------|
G|-----------|
D|--4h5p4p0--|
A|-----------|
E|-----------|

(1:32 - 1:38)
E|----------------------------------|
B|----------------------------------|
G|----------------------------------|
D|--7--------7--7--------7--7-----7-| (x2)
A|--7--------7--7--------7--7-----7-|
E|--7--7--7--7--7--7--7--7--7--7--7-|

E|----------|
B|----------|
G|----------|
D|--8b9--8--|
A|----------|
E|----------|

(1:39 - 1:42)
E|-------------------------------------|
B|-------------------------------------|
G|-------------------------------------|
D|--6--------6--6--------6--6-----6--6-|
A|--6--------6--6--------6--6-----6--6-|
E|--6--6--6--6--6--6--6--6--6--6--6--6-|

E|--------------------------|
B|--------------------------|
G|--------------------------|
D|-----------6--6--6--6--6--|
A|-----------6--6--6--6--6--|
E|--6--6--6--6--6--6--6--6--|

              (1:45 - 1:55)
E|-------------|   ----------------|
B|-------------|   ----------------|
G|-------------|   ----------------|
D|-------6(x8)-|x2 ------4(x8)-----|
A|-------------|   ----------------|
E|--7(x8)------|   -6(x8)----------|

E|--------------------------------------------------|
B|--------------------------------------------------|
G|--------------------------------------------------|
D|--------------------------------------------------|
A|--------------------------7--7--7--7--6--6--6--6--|
E|--6--6--6--6--6--6--6--6--------------------------|

         (1:59 - 2:13)
E|-----------|   --------------------------|
B|-----------|   --------------------------|
G|-----------|   -----------9-----9--9--9--|
D|-----6(x8)-|x2 ----4(x8)--------------9--|
A|-----------|   --------------7--------7--|
E|--7(x8)----|   -6(x8)--------------------|

(2:20 - 2:25)
E|-----------------|
B|-----------------|
G|--8b9--8--6\4/6--|
D|-----------------|
A|-----------------|
E|-----------------|

E|----------------------------------------------------------------------------|
B|----------------------------------------------------------------------------|
G|----------------------------------------------------------------------------|
D|-----2--1-----2--1-----4--------4--------6--------6-----------2--1-----2--1-|
A|--------------------------6--------6--------7--------7----------------------|
E|--2--------2--------6--------6--------6--------7--------7--2--------2-------|

(SOLO - Tremolo)
E|--16--14--12--11--9--8--9--11--12--19--16--19/21--19--17--16--14--12--|
B|----------------------------------------------------------------------|
G|----------------------------------------------------------------------|
D|----------------------------------------------------------------------|
A|----------------------------------------------------------------------|
E|----------------------------------------------------------------------|

 (3:31 - 3:37)Part A
E|-----------------------------------------------|
B|-----------------------------------------------|
G|-----------------------------------------------|
D|--------------------------6--6--6--6-----4--6--| (x2)
A|--------------------------------------7--------|
E|--7--7--7--7--7--7--7--7-----------------------|

(3:37 - 3:43)
E|------------------------------------------------------------|
B|------------------------------------------------------------|
G|------------------------------------------------------------|
D|-----4(x8)--------------------------------------------------|
A|------------------------------------7--7--7--7--6--6--6--6--|
E|--6(x8)-----6--6--6--6--6--6--6--6--------------------------|

E|-----------------|
B|-----------------|
G|-----9-----9--8--|
D|--2--9--2--9--8--|
A|--2--7--2--7--6--|
E|--2-----2--------|

Outro
E|------------------------------------------------------------|
B|------------------------------------------------------------|
G|------------------------------------------------------------|
D|-----4----------4----------6----------6-----------2--1------|
A|--------6----------6----------7----------7------------------|
E|--6----------6----------7----------7-----------2--------2v--|
Composição de Vic Fuentes
Colaboração e revisão:
  • Renan Sousa
5.930 exibições
    • ½ Tom
    • A
    • Bb
    • B
    • C
    • Db
    • D
    • Eb
    • E
    • F
    • F#
    • G
    • Ab
  • Adicionar à lista

    0 comentários

    Ver todos os comentários
    00:00 / 00:00
    Outros vídeos desta música
    Repetir Qualidade Automático
    Outros vídeos desta música
    00:00 / 00:00
    Automático

    Cifra Club Pro

    Aproveite o Cifra Club com benefícios exclusivos e sem anúncios
    Cifra Club Pro
    Aproveite o Cifra Club com benefícios exclusivos e sem anúncios
    OK